  0
SECTION
  2
HEADER
  9
$ACADVER
  1
AC1014
  9
$ACADMAINTVER
 70
     0
  9
$DWGCODEPAGE
  3
ANSI_932
  9
$INSBASE
 10
0.0
 20
0.0
 30
0.0
  9
$EXTMIN
 10
-1542.561141
 20
-1038.261174
 30
1.000000E+20
  9
$EXTMAX
 10
1751.405241
 20
1334.594679
 30
-1.000000E+20
  9
$LIMMIN
 10
-1542.561141
 20
-1038.261174
  9
$LIMMAX
 10
1751.405241
 20
1334.594679
  9
$ORTHOMODE
 70
     0
  9
$REGENMODE
 70
     1
  9
$FILLMODE
 70
     1
  9
$QTEXTMODE
 70
     0
  9
$MIRRTEXT
 70
     1
  9
$DRAGMODE
 70
     2
  9
$LTSCALE
 40
1.0
  9
$OSMODE
 70
     0
  9
$ATTMODE
 70
     1
  9
$TEXTSIZE
 40
0.2
  9
$TRACEWID
 40
0.05
  9
$TEXTSTYLE
  7
STANDARD
  9
$CLAYER
  8
0
  9
$CELTYPE
  6
CONTINUOUS
  9
$CECOLOR
 62
   256
  9
$CELTSCALE
 40
1.0
  9
$DELOBJ
 70
     1
  9
$DISPSILH
 70
     0
  9
$DIMSCALE
 40
1.0
  9
$DIMASZ
 40
0.18
  9
$DIMEXO
 40
0.0625
  9
$DIMDLI
 40
0.38
  9
$DIMRND
 40
0.0
  9
$DIMDLE
 40
0.0
  9
$DIMEXE
 40
0.18
  9
$DIMTP
 40
0.0
  9
$DIMTM
 40
0.0
  9
$DIMTXT
 40
0.18
  9
$DIMCEN
 40
0.09
  9
$DIMTSZ
 40
0.0
  9
$DIMTOL
 70
     0
  9
$DIMLIM
 70
     0
  9
$DIMTIH
 70
     1
  9
$DIMTOH
 70
     1
  9
$DIMSE1
 70
     0
  9
$DIMSE2
 70
     0
  9
$DIMTAD
 70
     0
  9
$DIMZIN
 70
     0
  9
$DIMBLK
  1

  9
$DIMASO
 70
     1
  9
$DIMSHO
 70
     1
  9
$DIMPOST
  1

  9
$DIMAPOST
  1

  9
$DIMALT
 70
     0
  9
$DIMALTD
 70
     2
  9
$DIMALTF
 40
25.4
  9
$DIMLFAC
 40
1.0
  9
$DIMTOFL
 70
     0
  9
$DIMTVP
 40
0.0
  9
$DIMTIX
 70
     0
  9
$DIMSOXD
 70
     0
  9
$DIMSAH
 70
     0
  9
$DIMBLK1
  1

  9
$DIMBLK2
  1

  9
$DIMSTYLE
  2
STANDARD
  9
$DIMCLRD
 70
     0
  9
$DIMCLRE
 70
     0
  9
$DIMCLRT
 70
     0
  9
$DIMTFAC
 40
1.0
  9
$DIMGAP
 40
0.09
  9
$DIMJUST
 70
     0
  9
$DIMSD1
 70
     0
  9
$DIMSD2
 70
     0
  9
$DIMTOLJ
 70
     1
  9
$DIMTZIN
 70
     0
  9
$DIMALTZ
 70
     0
  9
$DIMALTTZ
 70
     0
  9
$DIMFIT
 70
     3
  9
$DIMUPT
 70
     0
  9
$DIMUNIT
 70
     2
  9
$DIMDEC
 70
     4
  9
$DIMTDEC
 70
     4
  9
$DIMALTU
 70
     2
  9
$DIMALTTD
 70
     2
  9
$DIMTXSTY
  7
STANDARD
  9
$DIMAUNIT
 70
     0
  9
$LUNITS
 70
     2
  9
$LUPREC
 70
     4
  9
$SKETCHINC
 40
0.1
  9
$FILLETRAD
 40
0.0
  9
$AUNITS
 70
     0
  9
$AUPREC
 70
     0
  9
$MENU
  1
acad
  9
$ELEVATION
 40
0.0
  9
$PELEVATION
 40
0.0
  9
$THICKNESS
 40
0.0
  9
$LIMCHECK
 70
     0
  9
$BLIPMODE
 70
     1
  9
$CHAMFERA
 40
0.0
  9
$CHAMFERB
 40
0.0
  9
$CHAMFERC
 40
0.0
  9
$CHAMFERD
 40
0.0
  9
$SKPOLY
 70
     0
  9
$TDCREATE
 40
0.000000000
  9
$TDUPDATE
 40
0.000000000
  9
$TDINDWG
 40
0.0000000000
  9
$TDUSRTIMER
 40
0.0000000000
  9
$USRTIMER
 70
     1
  9
$ANGBASE
 50
0.0
  9
$ANGDIR
 70
     0
  9
$PDMODE
 70
     0
  9
$PDSIZE
 40
0.0
  9
$PLINEWID
 40
0.0
  9
$COORDS
 70
     0
  9
$SPLFRAME
 70
     0
  9
$SPLINETYPE
 70
     6
  9
$SPLINESEGS
 70
     8
  9
$ATTDIA
 70
     0
  9
$ATTREQ
 70
     1
  9
$HANDLING
 70
     1
  9
$HANDSEED
  5
46B
  9
$SURFTAB1
 70
     6
  9
$SURFTAB2
 70
     6
  9
$SURFTYPE
 70
     6
  9
$SURFU
 70
     6
  9
$SURFV
 70
     6
  9
$UCSNAME
  2

  9
$UCSORG
 10
0.0
 20
0.0
 30
0.0
  9
$UCSXDIR
 10
1.0
 20
0.0
 30
0.0
  9
$UCSYDIR
 10
0.0
 20
1.0
 30
0.0
  9
$PUCSNAME
  2

  9
$PUCSORG
 10
0.0
 20
0.0
 30
0.0
  9
$PUCSXDIR
 10
1.0
 20
0.0
 30
0.0
  9
$PUCSYDIR
 10
0.0
 20
1.0
 30
0.0
  9
$USERI1
 70
     0
  9
$USERI2
 70
     0
  9
$USERI3
 70
     0
  9
$USERI4
 70
     0
  9
$USERI5
 70
     0
  9
$USERR1
 40
0.0
  9
$USERR2
 40
0.0
  9
$USERR3
 40
0.0
  9
$USERR4
 40
0.0
  9
$USERR5
 40
0.0
  9
$WORLDVIEW
 70
     1
  9
$SHADEDGE
 70
     3
  9
$SHADEDIF
 70
    70
  9
$TILEMODE
 70
     1
  9
$MAXACTVP
 70
    16
  9
$PINSBASE
 10
0.0
 20
0.0
 30
0.0
  9
$PLIMCHECK
 70
     0
  9
$PEXTMIN
 10
1.000000E+20
 20
1.000000E+20
 30
1.000000E+20
  9
$PEXTMAX
 10
-1.000000E+20
 20
-1.000000E+20
 30
-1.000000E+20
  9
$PLIMMIN
 10
0.0
 20
0.0
  9
$PLIMMAX
 10
12.0
 20
9.0
  9
$UNITMODE
 70
     0
  9
$VISRETAIN
 70
     0
  9
$PLINEGEN
 70
     1
  9
$PSLTSCALE
 70
     0
  9
$TREEDEPTH
 70
  3020
  9
$PICKSTYLE
 70
     1
  9
$CMLSTYLE
  2
STANDARD
  9
$CMLJUST
 70
     0
  9
$CMLSCALE
 40
1.0
  9
$PROXYGRAPHICS
 70
     0
  9
$MEASUREMENT
 70
     0
  0
ENDSEC
  0
SECTION
  2
CLASSES
  0
CLASS
  1
LWPOLYLINE
  2
AcDbPolyline
  3
"AutoCAD"
 90
        0
280
     0
281
     1
  0
CLASS
  1
IMAGE
  2
AcDbRasterImage
  3
ISM
 90
      127
280
     0
281
     1
  0
CLASS
  1
OLE2FRAME
  2
AcDbOle2Frame
  3
""
 90
        0
280
     0
281
     1
  0
CLASS
  1
HATCH
  2
AcDbHatch
  3
"ACAD_SEDONA"
 90
        0
280
     0
281
     1
  0
CLASS
  1
DICTIONARYVAR
  2
AcDbDictionaryVar
  3
"AutoCAD"
 90
        0
280
     0
281
     0
  0
CLASS
  1
RASTERVARIABLES
  2
AcDbRasterVariables
  3
ISM
 90
        0
280
     0
281
     0
  0
CLASS
  1
IMAGEDEF
  2
AcDbRasterImageDef
  3
ISM
 90
        0
280
     0
281
     0
  0
CLASS
  1
IMAGEDEF_REACTOR
  2
AcDbRasterImageDefReactor
  3
ISM
 90
        1
280
     0
281
     0
  0
CLASS
  1
IDBUFFER
  2
AcDbIdBuffer
  3
"Acad"
 90
        0
280
     0
281
     0
  0
CLASS
  1
SPATIAL_FILTER
  2
AcDbSpatialFilter
  3
"Acad"
 90
        0
280
     0
281
     0
  0
CLASS
  1
XRECORD
  2
AcDbXrecord
  3
"<Built In>"
 90
        0
280
     0
281
     0
  0
CLASS
  1
SORTENTSTABLE
  2
AcDbSortentsTable
  3
"AutoCAD"
 90
        0
280
     0
281
     0
  0
CLASS
  1
LAYER_INDEX
  2
AcDbLayerIndex
  3
"Acad"
 90
        0
280
     0
281
     0
  0
CLASS
  1
SPATIAL_INDEX
  2
AcDbSpatialIndex
  3
"Acad"
 90
        0
280
     0
281
     0
  0
CLASS
  1
OBJECT_PTR
  2
CAseDLPNTableRecord
  3
"ASE-LPNTableRecord"
 90
        1
280
     0
281
     0
  0
CLASS
  1
LAYOUT
  2
AcDbLayout
  3
"AutoCAD 2000"
 90
        1
280
     0
281
     0
  0
CLASS
  1
PLOTSETTINGS
  2
AcDbPlotSettings
  3
"AutoCAD 2000"
 90
        1
280
     0
281
     0
  0
CLASS
  1
ACDBDICTIONARYWDFLT
  2
AcDbDictionaryWithDefault
  3
"AutoCAD 2000"
 90
        1
280
     0
281
     0
  0
CLASS
  1
ACDBPLACEHOLDER
  2
AcDbPlaceHolder
  3
"AutoCAD 2000"
 90
        1
280
     0
281
     0
  0
CLASS
  1
VBA_PROJECT
  2
AcDbVbaProject
  3
"acadvba"
 90
        1
280
     0
281
     0
  0
CLASS
  1
WIPEOUT
  2
AcDbWipeout
  3
WipeOut|AutoCAD Express Tool|expresstools@autodesk.com
 90
      127
280
     0
281
     1
  0
CLASS
  1
WIPEOUTVARIABLES
  2
AcDbWipeoutVariables
  3
WipeOut|AutoCAD Express Tool|expresstools@autodesk.com
 90
        0
280
     0
281
     0
  0
CLASS
  1
RTEXT
  2
RText
  3
RText|AutoCAD Express Tool|expresstools@autodesk.com
 90
        0
280
     0
281
     1
  0
CLASS
  1
ARCALIGNEDTEXT
  2
AcDbArcAlignedText
  3
ATEXT|AutoCAD Express Tool|expresstools@autodesk.com
 90
        0
280
     0
281
     1
  0
ENDSEC
  0
SECTION
  2
TABLES
  0
TABLE
  2
VPORT
  5
7
100
AcDbSymbolTable
 70
     1
  0
VPORT
  5
15
100
AcDbSymbolTableRecord
100
AcDbViewportTableRecord
  2
*ACTIVE
 70
     0
 10
0.0
 20
0.0
 11
1.0
 21
1.0
 12
6.591288
 22
4.579184
 13
0.0
 23
0.0
 14
1.0
 24
1.0
 15
0.0
 25
0.0
 16
0.0
 26
0.0
 36
1.0
 17
0.0
 27
0.0
 37
0.0
 40
9.158369
 41
0.688564
 42
50.0
 43
0.0
 44
0.0
 50
0.0
 51
0.0
 71
     0
 72
   100
 73
     1
 74
     1
 75
     0
 76
     0
 77
     0
 78
     0
  0
ENDTAB
  0
TABLE
  2
LTYPE
  5
4
100
AcDbSymbolTable
 70
     6
  0
LTYPE
  5
11
100
AcDbSymbolTableRecord
100
AcDbLinetypeTableRecord
  2
BYBLOCK
 70
    64
  3

 72
    65
 73
     0
 40
0.0
  0
LTYPE
  5
12
100
AcDbSymbolTableRecord
100
AcDbLinetypeTableRecord
  2
BYLAYER
 70
    64
  3

 72
    65
 73
     0
 40
0.0
  0
LTYPE
  5
13
100
AcDbSymbolTableRecord
100
AcDbLinetypeTableRecord
  2
CONTINUOUS
 70
    64
  3
Solid line
 72
    65
 73
     0
 40
0.0
  0
LTYPE
  5
43
100
AcDbSymbolTableRecord
100
AcDbLinetypeTableRecord
  2
AI9-LTYPE1
 70
    64
  3
Illustrator Dash Style No.1
 72
    65
 73
     2
 40
32.070703
 49
21.380468
 74
     0
 49
-10.690234
 74
     0
  0
LTYPE
  5
1AF
100
AcDbSymbolTableRecord
100
AcDbLinetypeTableRecord
  2
AI9-LTYPE2
 70
    64
  3
Illustrator Dash Style No.2
 72
    65
 73
     2
 40
16.035351
 49
10.690234
 74
     0
 49
-5.345117
 74
     0
  0
LTYPE
  5
2A0
100
AcDbSymbolTableRecord
100
AcDbLinetypeTableRecord
  2
AI9-LTYPE3
 70
    64
  3
Illustrator Dash Style No.3
 72
    65
 73
     4
 40
96.212115
 49
64.141412
 74
     0
 49
-10.690234
 74
     0
 49
10.690234
 74
     0
 49
-10.690234
 74
     0
  0
ENDTAB
  0
TABLE
  2
LAYER
  5
2
100
AcDbSymbolTable
 70
     5
  0
LAYER
  5
14
100
AcDbSymbolTableRecord
100
AcDbLayerTableRecord
  2
0
 70
     0
 62
     7
  6
CONTINUOUS
  0
LAYER
  5
21
100
AcDbSymbolTableRecord
100
AcDbLayerTableRecord
  2
レイヤー_1
 70
     0
 62
   160
  6
CONTINUOUS
  0
LAYER
  5
22
100
AcDbSymbolTableRecord
100
AcDbLayerTableRecord
  2
0
 70
     0
 62
     7
  6
CONTINUOUS
  0
LAYER
  5
469
100
AcDbSymbolTableRecord
100
AcDbLayerTableRecord
  2
レイヤー_1_0
 70
     0
 62
   160
  6
CONTINUOUS
  0
LAYER
  5
46A
100
AcDbSymbolTableRecord
100
AcDbLayerTableRecord
  2
DEFPOINTS
 70
     0
 62
     7
  6
CONTINUOUS
  0
ENDTAB
  0
TABLE
  2
STYLE
  5
3
100
AcDbSymbolTable
 70
     5
  0
STYLE
  5
17
100
AcDbSymbolTableRecord
100
AcDbTextStyleTableRecord
  2
STANDARD
 70
     0
 40
0.0
 41
1.0
 50
0.0
 71
     0
 42
0.0
  3
txt
  4

  0
STYLE
  5
1D
100
AcDbSymbolTableRecord
100
AcDbTextStyleTableRecord
  2
STD
 70
     0
 40
0.0
 41
1.0
 50
0.0
 71
     0
 42
0.0
  3
txt
  4

  0
STYLE
  5
1E
100
AcDbSymbolTableRecord
100
AcDbTextStyleTableRecord
  2
TATESTD
 70
     4
 40
0.0
 41
1.0
 50
0.0
 71
     0
 42
0.0
  3
txt
  4

  0
STYLE
  5
1F
100
AcDbSymbolTableRecord
100
AcDbTextStyleTableRecord
  2
KANJISTD
 70
     0
 40
0.0
 41
1.0
 50
0.0
 71
     0
 42
0.0
  3
txt
  4
extfont
  0
STYLE
  5
20
100
AcDbSymbolTableRecord
100
AcDbTextStyleTableRecord
  2
KANJITATE
 70
     4
 40
0.0
 41
1.0
 50
0.0
 71
     0
 42
0.0
  3
txt
  4
extfont
  0
ENDTAB
  0
TABLE
  2
VIEW
  5
5
100
AcDbSymbolTable
 70
     0
  0
ENDTAB
  0
TABLE
  2
UCS
  5
6
100
AcDbSymbolTable
 70
     0
  0
ENDTAB
  0
TABLE
  2
APPID
  5
8
100
AcDbSymbolTable
 70
     1
  0
APPID
  5
16
100
AcDbSymbolTableRecord
100
AcDbRegAppTableRecord
  2
ACAD
 70
     0
  0
ENDTAB
  0
TABLE
  2
DIMSTYLE
  5
9
100
AcDbSymbolTable
 70
     1
  0
DIMSTYLE
105
18
100
AcDbSymbolTableRecord
100
AcDbDimStyleTableRecord
  2
STANDARD
 70
     0
  3

  4

  5

  6

  7

 40
1.0
 41
0.18
 42
0.0625
 43
0.38
 44
0.18
 45
0.0
 46
0.0
 47
0.0
 48
0.0
 71
     0
 72
     0
 73
     1
 74
     1
 75
     0
 76
     0
 77
     0
 78
     0
140
0.18
141
0.09
142
0.0
143
25.4
144
1.0
145
0.0
146
1.0
147
0.09
170
     0
171
     2
172
     0
173
     0
174
     0
175
     0
176
     0
177
     0
178
     0
270
     2
271
     4
272
     4
273
     2
274
     2
275
     0
280
     0
281
     0
282
     0
283
     1
284
     0
285
     0
286
     0
287
     0
288
     0
340
17
  0
ENDTAB
  0
TABLE
  2
BLOCK_RECORD
  5
1
100
AcDbSymbolTable
 70
    71
  0
BLOCK_RECORD
  5
A
100
AcDbSymbolTableRecord
100
AcDbBlockTableRecord
  2
*MODEL_SPACE
  0
BLOCK_RECORD
  5
B
100
AcDbSymbolTableRecord
100
AcDbBlockTableRecord
  2
*PAPER_SPACE
  0
BLOCK_RECORD
  5
2F
100
AcDbSymbolTableRecord
100
AcDbBlockTableRecord
  2
AI9-BLK1
  0
BLOCK_RECORD
  5
32
100
AcDbSymbolTableRecord
100
AcDbBlockTableRecord
  2
AI9-BLK2
  0
BLOCK_RECORD
  5
37
100
AcDbSymbolTableRecord
100
AcDbBlockTableRecord
  2
AI9-BLK3
  0
BLOCK_RECORD
  5
3C
100
AcDbSymbolTableRecord
100
AcDbBlockTableRecord
  2
AI9-BLK4
  0
BLOCK_RECORD
  5
52
100
AcDbSymbolTableRecord
100
AcDbBlockTableRecord
  2
AI9-BLK5
  0
BLOCK_RECORD
  5
55
100
AcDbSymbolTableRecord
100
AcDbBlockTableRecord
  2
AI9-BLK6
  0
BLOCK_RECORD
  5
5A
100
AcDbSymbolTableRecord
100
AcDbBlockTableRecord
  2
AI9-BLK7
  0
BLOCK_RECORD
  5
5F
100
AcDbSymbolTableRecord
100
AcDbBlockTableRecord
  2
AI9-BLK8
  0
BLOCK_RECORD
  5
74
100
AcDbSymbolTableRecord
100
AcDbBlockTableRecord
  2
AI9-BLK9
  0
BLOCK_RECORD
  5
77
100
AcDbSymbolTableRecord
100
AcDbBlockTableRecord
  2
AI9-BLK10
  0
BLOCK_RECORD
  5
7C
100
AcDbSymbolTableRecord
100
AcDbBlockTableRecord
  2
AI9-BLK11
  0
BLOCK_RECORD
  5
81
100
AcDbSymbolTableRecord
100
AcDbBlockTableRecord
  2
AI9-BLK12
  0
BLOCK_RECORD
  5
9A
100
AcDbSymbolTableRecord
100
AcDbBlockTableRecord
  2
AI9-BLK13
  0
BLOCK_RECORD
  5
9D
100
AcDbSymbolTableRecord
100
AcDbBlockTableRecord
  2
AI9-BLK14
  0
BLOCK_RECORD
  5
A2
100
AcDbSymbolTableRecord
100
AcDbBlockTableRecord
  2
AI9-BLK15
  0
BLOCK_RECORD
  5
A7
100
AcDbSymbolTableRecord
100
AcDbBlockTableRecord
  2
AI9-BLK16
  0
BLOCK_RECORD
  5
BD
100
AcDbSymbolTableRecord
100
AcDbBlockTableRecord
  2
AI9-BLK17
  0
BLOCK_RECORD
  5
C0
100
AcDbSymbolTableRecord
100
AcDbBlockTableRecord
  2
AI9-BLK18
  0
BLOCK_RECORD
  5
C5
100
AcDbSymbolTableRecord
100
AcDbBlockTableRecord
  2
AI9-BLK19
  0
BLOCK_RECORD
  5
CA
100
AcDbSymbolTableRecord
100
AcDbBlockTableRecord
  2
AI9-BLK20
  0
BLOCK_RECORD
  5
E0
100
AcDbSymbolTableRecord
100
AcDbBlockTableRecord
  2
AI9-BLK21
  0
BLOCK_RECORD
  5
E3
100
AcDbSymbolTableRecord
100
AcDbBlockTableRecord
  2
AI9-BLK22
  0
BLOCK_RECORD
  5
E8
100
AcDbSymbolTableRecord
100
AcDbBlockTableRecord
  2
AI9-BLK23
  0
BLOCK_RECORD
  5
ED
100
AcDbSymbolTableRecord
100
AcDbBlockTableRecord
  2
AI9-BLK24
  0
BLOCK_RECORD
  5
123
100
AcDbSymbolTableRecord
100
AcDbBlockTableRecord
  2
AI9-BLK25
  0
BLOCK_RECORD
  5
126
100
AcDbSymbolTableRecord
100
AcDbBlockTableRecord
  2
AI9-BLK26
  0
BLOCK_RECORD
  5
12B
100
AcDbSymbolTableRecord
100
AcDbBlockTableRecord
  2
AI9-BLK27
  0
BLOCK_RECORD
  5
130
100
AcDbSymbolTableRecord
100
AcDbBlockTableRecord
  2
AI9-BLK28
  0
BLOCK_RECORD
  5
145
100
AcDbSymbolTableRecord
100
AcDbBlockTableRecord
  2
AI9-BLK29
  0
BLOCK_RECORD
  5
148
100
AcDbSymbolTableRecord
100
AcDbBlockTableRecord
  2
AI9-BLK30
  0
BLOCK_RECORD
  5
14D
100
AcDbSymbolTableRecord
100
AcDbBlockTableRecord
  2
AI9-BLK31
  0
BLOCK_RECORD
  5
152
100
AcDbSymbolTableRecord
100
AcDbBlockTableRecord
  2
AI9-BLK32
  0
BLOCK_RECORD
  5
167
100
AcDbSymbolTableRecord
100
AcDbBlockTableRecord
  2
AI9-BLK33
  0
BLOCK_RECORD
  5
16A
100
AcDbSymbolTableRecord
100
AcDbBlockTableRecord
  2
AI9-BLK34
  0
BLOCK_RECORD
  5
16F
100
AcDbSymbolTableRecord
100
AcDbBlockTableRecord
  2
AI9-BLK35
  0
BLOCK_RECORD
  5
174
100
AcDbSymbolTableRecord
100
AcDbBlockTableRecord
  2
AI9-BLK36
  0
BLOCK_RECORD
  5
18C
100
AcDbSymbolTableRecord
100
AcDbBlockTableRecord
  2
AI9-BLK37
  0
BLOCK_RECORD
  5
18F
100
AcDbSymbolTableRecord
100
AcDbBlockTableRecord
  2
AI9-BLK38
  0
BLOCK_RECORD
  5
194
100
AcDbSymbolTableRecord
100
AcDbBlockTableRecord
  2
AI9-BLK39
  0
BLOCK_RECORD
  5
199
100
AcDbSymbolTableRecord
100
AcDbBlockTableRecord
  2
AI9-BLK40
  0
BLOCK_RECORD
  5
1B3
100
AcDbSymbolTableRecord
100
AcDbBlockTableRecord
  2
AI9-BLK41
  0
BLOCK_RECORD
  5
1B6
100
AcDbSymbolTableRecord
100
AcDbBlockTableRecord
  2
AI9-BLK42
  0
BLOCK_RECORD
  5
1BB
100
AcDbSymbolTableRecord
100
AcDbBlockTableRecord
  2
AI9-BLK43
  0
BLOCK_RECORD
  5
1C0
100
AcDbSymbolTableRecord
100
AcDbBlockTableRecord
  2
AI9-BLK44
  0
BLOCK_RECORD
  5
1D6
100
AcDbSymbolTableRecord
100
AcDbBlockTableRecord
  2
AI9-BLK45
  0
BLOCK_RECORD
  5
1D9
100
AcDbSymbolTableRecord
100
AcDbBlockTableRecord
  2
AI9-BLK46
  0
BLOCK_RECORD
  5
1DE
100
AcDbSymbolTableRecord
100
AcDbBlockTableRecord
  2
AI9-BLK47
  0
BLOCK_RECORD
  5
1E3
100
AcDbSymbolTableRecord
100
AcDbBlockTableRecord
  2
AI9-BLK48
  0
BLOCK_RECORD
  5
21F
100
AcDbSymbolTableRecord
100
AcDbBlockTableRecord
  2
AI9-BLK49
  0
BLOCK_RECORD
  5
222
100
AcDbSymbolTableRecord
100
AcDbBlockTableRecord
  2
AI9-BLK50
  0
BLOCK_RECORD
  5
227
100
AcDbSymbolTableRecord
100
AcDbBlockTableRecord
  2
AI9-BLK51
  0
BLOCK_RECORD
  5
22C
100
AcDbSymbolTableRecord
100
AcDbBlockTableRecord
  2
AI9-BLK52
  0
BLOCK_RECORD
  5
242
100
AcDbSymbolTableRecord
100
AcDbBlockTableRecord
  2
AI9-BLK53
  0
BLOCK_RECORD
  5
245
100
AcDbSymbolTableRecord
100
AcDbBlockTableRecord
  2
AI9-BLK54
  0
BLOCK_RECORD
  5
24A
100
AcDbSymbolTableRecord
100
AcDbBlockTableRecord
  2
AI9-BLK55
  0
BLOCK_RECORD
  5
24F
100
AcDbSymbolTableRecord
100
AcDbBlockTableRecord
  2
AI9-BLK56
  0
BLOCK_RECORD
  5
2DB
100
AcDbSymbolTableRecord
100
AcDbBlockTableRecord
  2
AI9-BLK57
  0
BLOCK_RECORD
  5
2EB
100
AcDbSymbolTableRecord
100
AcDbBlockTableRecord
  2
AI9-BLK58
  0
BLOCK_RECORD
  5
303
100
AcDbSymbolTableRecord
100
AcDbBlockTableRecord
  2
AI9-BLK59
  0
BLOCK_RECORD
  5
30F
100
AcDbSymbolTableRecord
100
AcDbBlockTableRecord
  2
AI9-BLK60
  0
BLOCK_RECORD
  5
31B
100
AcDbSymbolTableRecord
100
AcDbBlockTableRecord
  2
AI9-BLK61
  0
BLOCK_RECORD
  5
327
100
AcDbSymbolTableRecord
100
AcDbBlockTableRecord
  2
AI9-BLK62
  0
BLOCK_RECORD
  5
333
100
AcDbSymbolTableRecord
100
AcDbBlockTableRecord
  2
AI9-BLK63
  0
BLOCK_RECORD
  5
33E
100
AcDbSymbolTableRecord
100
AcDbBlockTableRecord
  2
AI9-BLK64
  0
BLOCK_RECORD
  5
341
100
AcDbSymbolTableRecord
100
AcDbBlockTableRecord
  2
AI9-BLK65
  0
BLOCK_RECORD
  5
346
100
AcDbSymbolTableRecord
100
AcDbBlockTableRecord
  2
AI9-BLK66
  0
BLOCK_RECORD
  5
34B
100
AcDbSymbolTableRecord
100
AcDbBlockTableRecord
  2
AI9-BLK67
  0
BLOCK_RECORD
  5
371
100
AcDbSymbolTableRecord
100
AcDbBlockTableRecord
  2
AI9-BLK68
  0
BLOCK_RECORD
  5
37F
100
AcDbSymbolTableRecord
100
AcDbBlockTableRecord
  2
AI9-BLK69
  0
BLOCK_RECORD
  5
38D
100
AcDbSymbolTableRecord
100
AcDbBlockTableRecord
  2
AI9-BLK70
  0
BLOCK_RECORD
  5
3AE
100
AcDbSymbolTableRecord
100
AcDbBlockTableRecord
  2
AI9-BLK71
  0
ENDTAB
  0
ENDSEC
  0
SECTION
  2
BLOCKS
  0
BLOCK
  5
D
100
AcDbEntity
  8
0
100
AcDbBlockBegin
  2
*MODEL_SPACE
 70
     0
 10
0.0
 20
0.0
 30
0.0
  3
*MODEL_SPACE
  1

  0
ENDBLK
  5
E
100
AcDbEntity
  8
0
100
AcDbBlockEnd
  0
BLOCK
  5
F
100
AcDbEntity
 67
     1
  8
0
100
AcDbBlockBegin
  2
*PAPER_SPACE
 70
     0
 10
0.0
 20
0.0
 30
0.0
  3
*PAPER_SPACE
  1

  0
ENDBLK
  5
10
100
AcDbEntity
 67
     1
  8
0
100
AcDbBlockEnd
  0
BLOCK
  5
31
100
AcDbEntity
  8
0
 62
     7
100
AcDbBlockBegin
  2
AI9-BLK1
 70
     0
 10
0.0
 20
0.0
 30
0.0
  3
AI9-BLK1
  1

  0
LINE
  5
50
100
AcDbEntity
  8
0
  6
AI9-LTYPE1
 62
     7
100
AcDbLine
 10
-24.189996
 20
49.999877
 30
0.0
 11
25.243679
 21
49.999877
 31
0.0
  0
LINE
  5
4F
100
AcDbEntity
  8
0
  6
AI9-LTYPE1
 62
     7
100
AcDbLine
 10
21.034978
 20
-41.582475
 30
0.0
 11
21.034978
 21
41.582475
 31
0.0
  0
POLYLINE
  5
4A
100
AcDbEntity
  8
0
  6
AI9-LTYPE1
 62
     7
100
AcDb2dPolyline
 66
     1
 10
0.0
 20
0.0
 30
0.0
 70
     1
  0
VERTEX
  5
4B
100
AcDbEntity
  8
0
  6
AI9-LTYPE1
 62
     7
100
AcDbVertex
100
AcDb2dVertex
 10
19.631963
 20
-41.582475
 30
0.0
  0
VERTEX
  5
4C
100
AcDbEntity
  8
0
  6
AI9-LTYPE1
 62
     7
100
AcDbVertex
100
AcDb2dVertex
 10
22.437821
 20
-41.582475
 30
0.0
  0
VERTEX
  5
4D
100
AcDbEntity
  8
0
  6
AI9-LTYPE1
 62
     7
100
AcDbVertex
100
AcDb2dVertex
 10
21.034978
 20
-50.000221
 30
0.0
  0
SEQEND
  5
4E
100
AcDbEntity
  8
0
  6
AI9-LTYPE1
 62
     7
  0
HATCH
  5
49
100
AcDbEntity
  8
0
 62
     7
100
AcDbHatch
 10
0.0
 20
0.0
 30
0.0
210
0.0
220
0.0
230
1.0
  2
SOLID
 70
     1
 71
     0
 91
        1
 92
        3
 72
     0
 73
     1
 93
        3
 10
19.631962754991317
 20
-41.582474772135413
 10
22.437820773654511
 20
-41.582474772135413
 10
21.034977891710067
 20
-50.000221082899301
 97
        0
 75
     0
 76
     1
 98
        1
 10
0.0
 20
0.0
  0
POLYLINE
  5
44
100
AcDbEntity
  8
0
  6
AI9-LTYPE1
 62
     7
100
AcDb2dPolyline
 66
     1
 10
0.0
 20
0.0
 30
0.0
 70
     1
  0
VERTEX
  5
45
100
AcDbEntity
  8
0
  6
AI9-LTYPE1
 62
     7
100
AcDbVertex
100
AcDb2dVertex
 10
19.631963
 20
41.582475
 30
0.0
  0
VERTEX
  5
46
100
AcDbEntity
  8
0
  6
AI9-LTYPE1
 62
     7
100
AcDbVertex
100
AcDb2dVertex
 10
22.437821
 20
41.582475
 30
0.0
  0
VERTEX
  5
47
100
AcDbEntity
  8
0
  6
AI9-LTYPE1
 62
     7
100
AcDbVertex
100
AcDb2dVertex
 10
21.034978
 20
49.999877
 30
0.0
  0
SEQEND
  5
48
100
AcDbEntity
  8
0
  6
AI9-LTYPE1
 62
     7
  0
HATCH
  5
42
100
AcDbEntity
  8
0
 62
     7
100
AcDbHatch
 10
0.0
 20
0.0
 30
0.0
210
0.0
220
0.0
230
1.0
  2
SOLID
 70
     1
 71
     0
 91
        1
 92
        3
 72
     0
 73
     1
 93
        3
 10
21.034977891710067
 20
49.99987657335069
 10
22.437820773654511
 20
41.582474772135413
 10
19.631962754991317
 20
41.582474772135413
 97
        0
 75
     0
 76
     1
 98
        1
 10
0.0
 20
0.0
  0
MTEXT
  5
41
100
AcDbEntity
  8
0
 62
     7
100
AcDbMText
 10
-1.133709
 20
-22.601378
 30
0.0
 40
20.0
 41
0.0
 71
     1
 72
     2
  1
\fTxt|b0|i0;100
  7
STD
210
0.0
220
0.0
230
1.0
 11
0.0
 21
1.0
 31
0.0
  0
INSERT
  5
3D
100
AcDbEntity
  8
0
 62
     7
100
AcDbBlockReference
  2
AI9-BLK4
 10
-21.248832
 20
-50.000049
 30
0.0
  0
INSERT
  5
38
100
AcDbEntity
  8
0
 62
     7
100
AcDbBlockReference
  2
AI9-BLK3
 10
-26.294347
 20
50.000049
 30
0.0
  0
INSERT
  5
33
100
AcDbEntity
  8
0
 62
     7
100
AcDbBlockReference
  2
AI9-BLK2
 10
21.034978
 20
50.000049
 30
0.0
  0
ENDBLK
  5
51
100
AcDbEntity
  8
0
100
AcDbBlockEnd
  0
BLOCK
  5
34
100
AcDbEntity
  8
0
 62
     7
100
AcDbBlockBegin
  2
AI9-BLK2
 70
     0
 10
0.0
 20
0.0
 30
0.0
  3
AI9-BLK2
  1

  0
CIRCLE
  5
35
100
AcDbEntity
  8
0
 62
     7
100
AcDbCircle
 10
0.0
 20
-0.000172
 30
0.0
 40
0.035312
  0
ENDBLK
  5
36
100
AcDbEntity
  8
0
100
AcDbBlockEnd
  0
BLOCK
  5
39
100
AcDbEntity
  8
0
 62
     7
100
AcDbBlockBegin
  2
AI9-BLK3
 70
     0
 10
0.0
 20
0.0
 30
0.0
  3
AI9-BLK3
  1

  0
CIRCLE
  5
3A
100
AcDbEntity
  8
0
 62
     7
100
AcDbCircle
 10
0.0
 20
-0.000172
 30
0.0
 40
0.035226
  0
ENDBLK
  5
3B
100
AcDbEntity
  8
0
100
AcDbBlockEnd
  0
BLOCK
  5
3E
100
AcDbEntity
  8
0
 62
     7
100
AcDbBlockBegin
  2
AI9-BLK4
 70
     0
 10
0.0
 20
0.0
 30
0.0
  3
AI9-BLK4
  1

  0
CIRCLE
  5
3F
100
AcDbEntity
  8
0
 62
     7
100
AcDbCircle
 10
0.0
 20
-0.000172
 30
0.0
 40
0.035226
  0
ENDBLK
  5
40
100
AcDbEntity
  8
0
100
AcDbBlockEnd
  0
BLOCK
  5
54
100
AcDbEntity
  8
0
  6
AI9-LTYPE1
 62
     7
100
AcDbBlockBegin
  2
AI9-BLK5
 70
     0
 10
0.0
 20
0.0
 30
0.0
  3
AI9-BLK5
  1

  0
LINE
  5
72
100
AcDbEntity
  8
0
  6
AI9-LTYPE1
 62
     7
100
AcDbLine
 10
9.038725
 20
184.999905
 30
0.0
 11
53.426885
 21
184.999905
 31
0.0
  0
LINE
  5
71
100
AcDbEntity
  8
0
  6
AI9-LTYPE1
 62
     7
100
AcDbLine
 10
49.218184
 20
-176.582503
 30
0.0
 11
49.218184
 21
176.582503
 31
0.0
  0
POLYLINE
  5
6C
100
AcDbEntity
  8
0
  6
AI9-LTYPE1
 62
     7
100
AcDb2dPolyline
 66
     1
 10
0.0
 20
0.0
 30
0.0
 70
     1
  0
VERTEX
  5
6D
100
AcDbEntity
  8
0
  6
AI9-LTYPE1
 62
     7
100
AcDbVertex
100
AcDb2dVertex
 10
47.815169
 20
-176.582503
 30
0.0
  0
VERTEX
  5
6E
100
AcDbEntity
  8
0
  6
AI9-LTYPE1
 62
     7
100
AcDbVertex
100
AcDb2dVertex
 10
50.621027
 20
-176.582503
 30
0.0
  0
VERTEX
  5
6F
100
AcDbEntity
  8
0
  6
AI9-LTYPE1
 62
     7
100
AcDbVertex
100
AcDb2dVertex
 10
49.218184
 20
-184.999905
 30
0.0
  0
SEQEND
  5
70
100
AcDbEntity
  8
0
  6
AI9-LTYPE1
 62
     7
  0
HATCH
  5
6B
100
AcDbEntity
  8
0
 62
     7
100
AcDbHatch
 10
0.0
 20
0.0
 30
0.0
210
0.0
220
0.0
230
1.0
  2
SOLID
 70
     1
 71
     0
 91
        1
 92
        3
 72
     0
 73
     1
 93
        3
 10
47.81516927083333
 20
-176.58250325520831
 10
50.621027289496524
 20
-176.58250325520831
 10
49.21818440755208
 20
-184.99990505642359
 97
        0
 75
     0
 76
     1
 98
        1
 10
0.0
 20
0.0
  0
POLYLINE
  5
66
100
AcDbEntity
  8
0
  6
AI9-LTYPE1
 62
     7
100
AcDb2dPolyline
 66
     1
 10
0.0
 20
0.0
 30
0.0
 70
     1
  0
VERTEX
  5
67
100
AcDbEntity
  8
0
  6
AI9-LTYPE1
 62
     7
100
AcDbVertex
100
AcDb2dVertex
 10
47.815169
 20
176.582503
 30
0.0
  0
VERTEX
  5
68
100
AcDbEntity
  8
0
  6
AI9-LTYPE1
 62
     7
100
AcDbVertex
100
AcDb2dVertex
 10
50.621027
 20
176.582503
 30
0.0
  0
VERTEX
  5
69
100
AcDbEntity
  8
0
  6
AI9-LTYPE1
 62
     7
100
AcDbVertex
100
AcDb2dVertex
 10
49.218184
 20
184.999905
 30
0.0
  0
SEQEND
  5
6A
100
AcDbEntity
  8
0
  6
AI9-LTYPE1
 62
     7
  0
HATCH
  5
65
100
AcDbEntity
  8
0
 62
     7
100
AcDbHatch
 10
0.0
 20
0.0
 30
0.0
210
0.0
220
0.0
230
1.0
  2
SOLID
 70
     1
 71
     0
 91
        1
 92
        3
 72
     0
 73
     1
 93
        3
 10
49.21818440755208
 20
184.99990505642359
 10
50.621027289496524
 20
176.58250325520831
 10
47.81516927083333
 20
176.58250325520831
 97
        0
 75
     0
 76
     1
 98
        1
 10
0.0
 20
0.0
  0
MTEXT
  5
64
100
AcDbEntity
  8
0
 62
     7
100
AcDbMText
 10
27.049497
 20
-27.431229
 30
0.0
 40
20.0
 41
0.0
 71
     1
 72
     2
  1
\fTxt|b0|i0;370
  7
STD
210
0.0
220
0.0
230
1.0
 11
0.0
 21
1.0
 31
0.0
  0
INSERT
  5
60
100
AcDbEntity
  8
0
 62
     7
100
AcDbBlockReference
  2
AI9-BLK8
 10
-54.477467
 20
-185.000077
 30
0.0
  0
INSERT
  5
5B
100
AcDbEntity
  8
0
 62
     7
100
AcDbBlockReference
  2
AI9-BLK7
 10
6.934374
 20
185.000077
 30
0.0
  0
INSERT
  5
56
100
AcDbEntity
  8
0
  6
AI9-LTYPE1
 62
     7
100
AcDbBlockReference
  2
AI9-BLK6
 10
49.218184
 20
185.000077
 30
0.0
  0
ENDBLK
  5
73
100
AcDbEntity
  8
0
100
AcDbBlockEnd
  0
BLOCK
  5
57
100
AcDbEntity
  8
0
  6
AI9-LTYPE1
 62
     7
100
AcDbBlockBegin
  2
AI9-BLK6
 70
     0
 10
0.0
 20
0.0
 30
0.0
  3
AI9-BLK6
  1

  0
CIRCLE
  5
58
100
AcDbEntity
  8
0
 62
     7
100
AcDbCircle
 10
0.0
 20
-0.000172
 30
0.0
 40
0.035312
  0
ENDBLK
  5
59
100
AcDbEntity
  8
0
100
AcDbBlockEnd
  0
BLOCK
  5
5C
100
AcDbEntity
  8
0
 62
     7
100
AcDbBlockBegin
  2
AI9-BLK7
 70
     0
 10
0.0
 20
0.0
 30
0.0
  3
AI9-BLK7
  1

  0
CIRCLE
  5
5D
100
AcDbEntity
  8
0
 62
     7
100
AcDbCircle
 10
0.0
 20
-0.000172
 30
0.0
 40
0.035226
  0
ENDBLK
  5
5E
100
AcDbEntity
  8
0
100
AcDbBlockEnd
  0
BLOCK
  5
61
100
AcDbEntity
  8
0
 62
     7
100
AcDbBlockBegin
  2
AI9-BLK8
 70
     0
 10
0.0
 20
0.0
 30
0.0
  3
AI9-BLK8
  1

  0
CIRCLE
  5
62
100
AcDbEntity
  8
0
 62
     7
100
AcDbCircle
 10
0.0
 20
0.000172
 30
0.0
 40
0.035312
  0
ENDBLK
  5
63
100
AcDbEntity
  8
0
100
AcDbBlockEnd
  0
BLOCK
  5
76
100
AcDbEntity
  8
0
  6
AI9-LTYPE1
 62
     7
100
AcDbBlockBegin
  2
AI9-BLK9
 70
     0
 10
0.0
 20
0.0
 30
0.0
  3
AI9-BLK9
  1

  0
LINE
  5
95
100
AcDbEntity
  8
0
  6
AI9-LTYPE1
 62
     7
100
AcDbLine
 10
7.51427
 20
-64.999822
 30
0.0
 11
53.426713
 21
-64.999822
 31
0.0
  0
LINE
  5
94
100
AcDbEntity
  8
0
  6
AI9-LTYPE1
 62
     7
100
AcDbLine
 10
-52.373375
 20
65.000167
 30
0.0
 11
53.426713
 21
65.000167
 31
0.0
  0
LINE
  5
93
100
AcDbEntity
  8
0
  6
AI9-LTYPE1
 62
     7
100
AcDbLine
 10
49.218012
 20
-56.582421
 30
0.0
 11
49.218012
 21
56.582765
 31
0.0
  0
POLYLINE
  5
8E
100
AcDbEntity
  8
0
  6
AI9-LTYPE1
 62
     7
100
AcDb2dPolyline
 66
     1
 10
0.0
 20
0.0
 30
0.0
 70
     1
  0
VERTEX
  5
8F
100
AcDbEntity
  8
0
  6
AI9-LTYPE1
 62
     7
100
AcDbVertex
100
AcDb2dVertex
 10
47.814997
 20
-56.582421
 30
0.0
  0
VERTEX
  5
90
100
AcDbEntity
  8
0
  6
AI9-LTYPE1
 62
     7
100
AcDbVertex
100
AcDb2dVertex
 10
50.620855
 20
-56.582421
 30
0.0
  0
VERTEX
  5
91
100
AcDbEntity
  8
0
  6
AI9-LTYPE1
 62
     7
100
AcDbVertex
100
AcDb2dVertex
 10
49.218012
 20
-64.999822
 30
0.0
  0
SEQEND
  5
92
100
AcDbEntity
  8
0
  6
AI9-LTYPE1
 62
     7
  0
HATCH
  5
8D
100
AcDbEntity
  8
0
 62
     7
100
AcDbHatch
 10
0.0
 20
0.0
 30
0.0
210
0.0
220
0.0
230
1.0
  2
SOLID
 70
     1
 71
     0
 91
        1
 92
        3
 72
     0
 73
     1
 93
        3
 10
47.814997016059024
 20
-56.582420518663191
 10
50.620855034722219
 20
-56.582420518663191
 10
49.218012152777774
 20
-64.999822319878461
 97
        0
 75
     0
 76
     1
 98
        1
 10
0.0
 20
0.0
  0
POLYLINE
  5
88
100
AcDbEntity
  8
0
  6
AI9-LTYPE1
 62
     7
100
AcDb2dPolyline
 66
     1
 10
0.0
 20
0.0
 30
0.0
 70
     1
  0
VERTEX
  5
89
100
AcDbEntity
  8
0
  6
AI9-LTYPE1
 62
     7
100
AcDbVertex
100
AcDb2dVertex
 10
47.814997
 20
56.582765
 30
0.0
  0
VERTEX
  5
8A
100
AcDbEntity
  8
0
  6
AI9-LTYPE1
 62
     7
100
AcDbVertex
100
AcDb2dVertex
 10
50.620855
 20
56.582765
 30
0.0
  0
VERTEX
  5
8B
100
AcDbEntity
  8
0
  6
AI9-LTYPE1
 62
     7
100
AcDbVertex
100
AcDb2dVertex
 10
49.218012
 20
65.000167
 30
0.0
  0
SEQEND
  5
8C
100
AcDbEntity
  8
0
  6
AI9-LTYPE1
 62
     7
  0
HATCH
  5
87
100
AcDbEntity
  8
0
 62
     7
100
AcDbHatch
 10
0.0
 20
0.0
 30
0.0
210
0.0
220
0.0
230
1.0
  2
SOLID
 70
     1
 71
     0
 91
        1
 92
        3
 72
     0
 73
     1
 93
        3
 10
49.218012152777774
 20
65.000166829427073
 10
50.620855034722219
 20
56.582765028211803
 10
47.814997016059024
 20
56.582765028211803
 97
        0
 75
     0
 76
     1
 98
        1
 10
0.0
 20
0.0
  0
MTEXT
  5
86
100
AcDbEntity
  8
0
 62
     7
100
AcDbMText
 10
27.049669
 20
-24.208859
 30
0.0
 40
20.0
 41
0.0
 71
     1
 72
     2
  1
\fTxt|b0|i0;130
  7
STD
210
0.0
220
0.0
230
1.0
 11
0.0
 21
1.0
 31
0.0
  0
INSERT
  5
82
100
AcDbEntity
  8
0
 62
     7
100
AcDbBlockReference
  2
AI9-BLK12
 10
5.409833
 20
-64.999995
 30
0.0
  0
INSERT
  5
7D
100
AcDbEntity
  8
0
 62
     7
100
AcDbBlockReference
  2
AI9-BLK11
 10
-54.477639
 20
64.999995
 30
0.0
  0
INSERT
  5
78
100
AcDbEntity
  8
0
  6
AI9-LTYPE1
 62
     7
100
AcDbBlockReference
  2
AI9-BLK10
 10
49.218012
 20
64.999995
 30
0.0
  0
ENDBLK
  5
96
100
AcDbEntity
  8
0
100
AcDbBlockEnd
  0
BLOCK
  5
79
100
AcDbEntity
  8
0
  6
AI9-LTYPE1
 62
     7
100
AcDbBlockBegin
  2
AI9-BLK10
 70
     0
 10
0.0
 20
0.0
 30
0.0
  3
AI9-BLK10
  1

  0
CIRCLE
  5
7A
100
AcDbEntity
  8
0
 62
     7
100
AcDbCircle
 10
0.0
 20
0.000172
 30
0.0
 40
0.035312
  0
ENDBLK
  5
7B
100
AcDbEntity
  8
0
100
AcDbBlockEnd
  0
BLOCK
  5
7E
100
AcDbEntity
  8
0
 62
     7
100
AcDbBlockBegin
  2
AI9-BLK11
 70
     0
 10
0.0
 20
0.0
 30
0.0
  3
AI9-BLK11
  1

  0
CIRCLE
  5
7F
100
AcDbEntity
  8
0
 62
     7
100
AcDbCircle
 10
0.0
 20
0.000172
 30
0.0
 40
0.035312
  0
ENDBLK
  5
80
100
AcDbEntity
  8
0
100
AcDbBlockEnd
  0
BLOCK
  5
83
100
AcDbEntity
  8
0
 62
     7
100
AcDbBlockBegin
  2
AI9-BLK12
 70
     0
 10
0.0
 20
0.0
 30
0.0
  3
AI9-BLK12
  1

  0
CIRCLE
  5
84
100
AcDbEntity
  8
0
 62
     7
100
AcDbCircle
 10
0.0
 20
0.000172
 30
0.0
 40
0.035312
  0
ENDBLK
  5
85
100
AcDbEntity
  8
0
100
AcDbBlockEnd
  0
BLOCK
  5
9C
100
AcDbEntity
  8
0
 62
     7
100
AcDbBlockBegin
  2
AI9-BLK13
 70
     0
 10
0.0
 20
0.0
 30
0.0
  3
AI9-BLK13
  1

  0
LINE
  5
BB
100
AcDbEntity
  8
0
  6
AI9-LTYPE1
 62
     7
100
AcDbLine
 10
-94.065662
 20
449.999837
 30
0.0
 11
95.119345
 21
449.999837
 31
0.0
  0
LINE
  5
BA
100
AcDbEntity
  8
0
  6
AI9-LTYPE1
 62
     7
100
AcDbLine
 10
-69.769471
 20
-450.000353
 30
0.0
 11
95.119345
 21
-450.000353
 31
0.0
  0
LINE
  5
B9
100
AcDbEntity
  8
0
  6
AI9-LTYPE1
 62
     7
100
AcDbLine
 10
90.910472
 20
441.582435
 30
0.0
 11
90.910472
 21
-441.582607
 31
0.0
  0
POLYLINE
  5
B4
100
AcDbEntity
  8
0
  6
AI9-LTYPE1
 62
     7
100
AcDb2dPolyline
 66
     1
 10
0.0
 20
0.0
 30
0.0
 70
     1
  0
VERTEX
  5
B5
100
AcDbEntity
  8
0
  6
AI9-LTYPE1
 62
     7
100
AcDbVertex
100
AcDb2dVertex
 10
89.507629
 20
441.582435
 30
0.0
  0
VERTEX
  5
B6
100
AcDbEntity
  8
0
  6
AI9-LTYPE1
 62
     7
100
AcDbVertex
100
AcDb2dVertex
 10
92.313487
 20
441.582435
 30
0.0
  0
VERTEX
  5
B7
100
AcDbEntity
  8
0
  6
AI9-LTYPE1
 62
     7
100
AcDbVertex
100
AcDb2dVertex
 10
90.910472
 20
449.999837
 30
0.0
  0
SEQEND
  5
B8
100
AcDbEntity
  8
0
  6
AI9-LTYPE1
 62
     7
  0
HATCH
  5
B3
100
AcDbEntity
  8
0
 62
     7
100
AcDbHatch
 10
0.0
 20
0.0
 30
0.0
210
0.0
220
0.0
230
1.0
  2
SOLID
 70
     1
 71
     0
 91
        1
 92
        3
 72
     0
 73
     1
 93
        3
 10
90.910471598307282
 20
449.9998365614149
 10
92.313486735026032
 20
441.58243476019959
 10
89.507628716362845
 20
441.58243476019959
 97
        0
 75
     0
 76
     1
 98
        1
 10
0.0
 20
0.0
  0
POLYLINE
  5
AE
100
AcDbEntity
  8
0
  6
AI9-LTYPE1
 62
     7
100
AcDb2dPolyline
 66
     1
 10
0.0
 20
0.0
 30
0.0
 70
     1
  0
VERTEX
  5
AF
100
AcDbEntity
  8
0
  6
AI9-LTYPE1
 62
     7
100
AcDbVertex
100
AcDb2dVertex
 10
89.507629
 20
-441.582607
 30
0.0
  0
VERTEX
  5
B0
100
AcDbEntity
  8
0
  6
AI9-LTYPE1
 62
     7
100
AcDbVertex
100
AcDb2dVertex
 10
92.313487
 20
-441.582607
 30
0.0
  0
VERTEX
  5
B1
100
AcDbEntity
  8
0
  6
AI9-LTYPE1
 62
     7
100
AcDbVertex
100
AcDb2dVertex
 10
90.910472
 20
-450.000353
 30
0.0
  0
SEQEND
  5
B2
100
AcDbEntity
  8
0
  6
AI9-LTYPE1
 62
     7
  0
HATCH
  5
AD
100
AcDbEntity
  8
0
 62
     7
100
AcDbHatch
 10
0.0
 20
0.0
 30
0.0
210
0.0
220
0.0
230
1.0
  2
SOLID
 70
     1
 71
     0
 91
        1
 92
        3
 72
     0
 73
     1
 93
        3
 10
89.507628716362845
 20
-441.58260701497392
 10
92.313486735026032
 20
-441.58260701497392
 10
90.910471598307282
 20
-450.00035332573782
 97
        0
 75
     0
 76
     1
 98
        1
 10
0.0
 20
0.0
  0
MTEXT
  5
AC
100
AcDbEntity
  8
0
 62
     7
100
AcDbMText
 10
68.741957
 20
-25.823661
 30
0.0
 40
20.0
 41
0.0
 71
     1
 72
     2
  1
\fTxt|b0|i0;900
  7
STD
210
0.0
220
0.0
230
1.0
 11
0.0
 21
1.0
 31
0.0
  0
INSERT
  5
A8
100
AcDbEntity
  8
0
 62
     7
100
AcDbBlockReference
  2
AI9-BLK16
 10
-96.169927
 20
450.000009
 30
0.0
  0
INSERT
  5
A3
100
AcDbEntity
  8
0
 62
     7
100
AcDbBlockReference
  2
AI9-BLK15
 10
-71.873821
 20
-450.000181
 30
0.0
  0
INSERT
  5
9E
100
AcDbEntity
  8
0
 62
     7
100
AcDbBlockReference
  2
AI9-BLK14
 10
90.910644
 20
-450.000181
 30
0.0
  0
ENDBLK
  5
BC
100
AcDbEntity
  8
0
100
AcDbBlockEnd
  0
BLOCK
  5
9F
100
AcDbEntity
  8
0
 62
     7
100
AcDbBlockBegin
  2
AI9-BLK14
 70
     0
 10
0.0
 20
0.0
 30
0.0
  3
AI9-BLK14
  1

  0
CIRCLE
  5
A0
100
AcDbEntity
  8
0
 62
     7
100
AcDbCircle
 10
0.0
 20
-0.000172
 30
0.0
 40
0.035312
  0
ENDBLK
  5
A1
100
AcDbEntity
  8
0
100
AcDbBlockEnd
  0
BLOCK
  5
A4
100
AcDbEntity
  8
0
 62
     7
100
AcDbBlockBegin
  2
AI9-BLK15
 70
     0
 10
0.0
 20
0.0
 30
0.0
  3
AI9-BLK15
  1

  0
CIRCLE
  5
A5
100
AcDbEntity
  8
0
 62
     7
100
AcDbCircle
 10
0.0
 20
-0.000172
 30
0.0
 40
0.035226
  0
ENDBLK
  5
A6
100
AcDbEntity
  8
0
100
AcDbBlockEnd
  0
BLOCK
  5
A9
100
AcDbEntity
  8
0
 62
     7
100
AcDbBlockBegin
  2
AI9-BLK16
 70
     0
 10
0.0
 20
0.0
 30
0.0
  3
AI9-BLK16
  1

  0
CIRCLE
  5
AA
100
AcDbEntity
  8
0
 62
     7
100
AcDbCircle
 10
0.0
 20
-0.000172
 30
0.0
 40
0.035312
  0
ENDBLK
  5
AB
100
AcDbEntity
  8
0
100
AcDbBlockEnd
  0
BLOCK
  5
BF
100
AcDbEntity
  8
0
  6
AI9-LTYPE1
 62
     7
100
AcDbBlockBegin
  2
AI9-BLK17
 70
     0
 10
0.0
 20
0.0
 30
0.0
  3
AI9-BLK17
  1

  0
LINE
  5
DE
100
AcDbEntity
  8
0
  6
AI9-LTYPE1
 62
     7
100
AcDbLine
 10
-22.478817
 20
399.999874
 30
0.0
 11
40.539903
 21
399.999874
 31
0.0
  0
LINE
  5
DD
100
AcDbEntity
  8
0
  6
AI9-LTYPE1
 62
     7
100
AcDbLine
 10
-39.48622
 20
-400.000218
 30
0.0
 11
40.539903
 21
-400.000218
 31
0.0
  0
LINE
  5
DC
100
AcDbEntity
  8
0
  6
AI9-LTYPE1
 62
     7
100
AcDbLine
 10
36.331202
 20
391.582472
 30
0.0
 11
36.331202
 21
-391.582472
 31
0.0
  0
POLYLINE
  5
D7
100
AcDbEntity
  8
0
  6
AI9-LTYPE1
 62
     7
100
AcDb2dPolyline
 66
     1
 10
0.0
 20
0.0
 30
0.0
 70
     1
  0
VERTEX
  5
D8
100
AcDbEntity
  8
0
  6
AI9-LTYPE1
 62
     7
100
AcDbVertex
100
AcDb2dVertex
 10
34.928187
 20
391.582472
 30
0.0
  0
VERTEX
  5
D9
100
AcDbEntity
  8
0
  6
AI9-LTYPE1
 62
     7
100
AcDbVertex
100
AcDb2dVertex
 10
37.734045
 20
391.582472
 30
0.0
  0
VERTEX
  5
DA
100
AcDbEntity
  8
0
  6
AI9-LTYPE1
 62
     7
100
AcDbVertex
100
AcDb2dVertex
 10
36.331202
 20
399.999874
 30
0.0
  0
SEQEND
  5
DB
100
AcDbEntity
  8
0
  6
AI9-LTYPE1
 62
     7
  0
HATCH
  5
D6
100
AcDbEntity
  8
0
 62
     7
100
AcDbHatch
 10
0.0
 20
0.0
 30
0.0
210
0.0
220
0.0
230
1.0
  2
SOLID
 70
     1
 71
     0
 91
        1
 92
        3
 72
     0
 73
     1
 93
        3
 10
36.331201850043399
 20
399.99987386067704
 10
37.734044731987844
 20
391.58247205946179
 10
34.928186713324649
 20
391.58247205946179
 97
        0
 75
     0
 76
     1
 98
        1
 10
0.0
 20
0.0
  0
POLYLINE
  5
D1
100
AcDbEntity
  8
0
  6
AI9-LTYPE1
 62
     7
100
AcDb2dPolyline
 66
     1
 10
0.0
 20
0.0
 30
0.0
 70
     1
  0
VERTEX
  5
D2
100
AcDbEntity
  8
0
  6
AI9-LTYPE1
 62
     7
100
AcDbVertex
100
AcDb2dVertex
 10
34.928187
 20
-391.582472
 30
0.0
  0
VERTEX
  5
D3
100
AcDbEntity
  8
0
  6
AI9-LTYPE1
 62
     7
100
AcDbVertex
100
AcDb2dVertex
 10
37.734045
 20
-391.582472
 30
0.0
  0
VERTEX
  5
D4
100
AcDbEntity
  8
0
  6
AI9-LTYPE1
 62
     7
100
AcDbVertex
100
AcDb2dVertex
 10
36.331202
 20
-400.000218
 30
0.0
  0
SEQEND
  5
D5
100
AcDbEntity
  8
0
  6
AI9-LTYPE1
 62
     7
  0
HATCH
  5
D0
100
AcDbEntity
  8
0
 62
     7
100
AcDbHatch
 10
0.0
 20
0.0
 30
0.0
210
0.0
220
0.0
230
1.0
  2
SOLID
 70
     1
 71
     0
 91
        1
 92
        3
 72
     0
 73
     1
 93
        3
 10
34.928186713324649
 20
-391.58247205946179
 10
37.734044731987844
 20
-391.58247205946179
 10
36.331201850043399
 20
-400.00021837022564
 97
        0
 75
     0
 76
     1
 98
        1
 10
0.0
 20
0.0
  0
MTEXT
  5
CF
100
AcDbEntity
  8
0
 62
     7
100
AcDbMText
 10
14.162515
 20
-25.823575
 30
0.0
 40
20.0
 41
0.0
 71
     1
 72
     2
  1
\fTxt|b0|i0;800
  7
STD
210
0.0
220
0.0
230
1.0
 11
0.0
 21
1.0
 31
0.0
  0
INSERT
  5
CB
100
AcDbEntity
  8
0
 62
     7
100
AcDbBlockReference
  2
AI9-BLK20
 10
-24.583254
 20
400.000046
 30
0.0
  0
INSERT
  5
C6
100
AcDbEntity
  8
0
 62
     7
100
AcDbBlockReference
  2
AI9-BLK19
 10
-41.590571
 20
-400.000046
 30
0.0
  0
INSERT
  5
C1
100
AcDbEntity
  8
0
  6
AI9-LTYPE1
 62
     7
100
AcDbBlockReference
  2
AI9-BLK18
 10
36.331202
 20
-400.000046
 30
0.0
  0
ENDBLK
  5
DF
100
AcDbEntity
  8
0
100
AcDbBlockEnd
  0
BLOCK
  5
C2
100
AcDbEntity
  8
0
  6
AI9-LTYPE1
 62
     7
100
AcDbBlockBegin
  2
AI9-BLK18
 70
     0
 10
0.0
 20
0.0
 30
0.0
  3
AI9-BLK18
  1

  0
CIRCLE
  5
C3
100
AcDbEntity
  8
0
 62
     7
100
AcDbCircle
 10
0.0
 20
-0.000172
 30
0.0
 40
0.035312
  0
ENDBLK
  5
C4
100
AcDbEntity
  8
0
100
AcDbBlockEnd
  0
BLOCK
  5
C7
100
AcDbEntity
  8
0
 62
     7
100
AcDbBlockBegin
  2
AI9-BLK19
 70
     0
 10
0.0
 20
0.0
 30
0.0
  3
AI9-BLK19
  1

  0
CIRCLE
  5
C8
100
AcDbEntity
  8
0
 62
     7
100
AcDbCircle
 10
0.0
 20
-0.000172
 30
0.0
 40
0.035226
  0
ENDBLK
  5
C9
100
AcDbEntity
  8
0
100
AcDbBlockEnd
  0
BLOCK
  5
CC
100
AcDbEntity
  8
0
 62
     7
100
AcDbBlockBegin
  2
AI9-BLK20
 70
     0
 10
0.0
 20
0.0
 30
0.0
  3
AI9-BLK20
  1

  0
CIRCLE
  5
CD
100
AcDbEntity
  8
0
 62
     7
100
AcDbCircle
 10
0.0
 20
-0.000172
 30
0.0
 40
0.035312
  0
ENDBLK
  5
CE
100
AcDbEntity
  8
0
100
AcDbBlockEnd
  0
BLOCK
  5
E2
100
AcDbEntity
  8
0
  6
AI9-LTYPE1
 62
     7
100
AcDbBlockBegin
  2
AI9-BLK21
 70
     0
 10
0.0
 20
0.0
 30
0.0
  3
AI9-BLK21
  1

  0
LINE
  5
101
100
AcDbEntity
  8
0
  6
AI9-LTYPE1
 62
     7
100
AcDbLine
 10
109.250524
 20
-400.000218
 30
0.0
 11
-86.581106
 21
-400.000218
 31
0.0
  0
LINE
  5
100
100
AcDbEntity
  8
0
  6
AI9-LTYPE1
 62
     7
100
AcDbLine
 10
102.792348
 20
399.999874
 30
0.0
 11
-86.581106
 21
399.999874
 31
0.0
  0
LINE
  5
FF
100
AcDbEntity
  8
0
  6
AI9-LTYPE1
 62
     7
100
AcDbLine
 10
-82.372578
 20
-391.582472
 30
0.0
 11
-82.372578
 21
391.582472
 31
0.0
  0
POLYLINE
  5
FA
100
AcDbEntity
  8
0
  6
AI9-LTYPE1
 62
     7
100
AcDb2dPolyline
 66
     1
 10
0.0
 20
0.0
 30
0.0
 70
     1
  0
VERTEX
  5
FB
100
AcDbEntity
  8
0
  6
AI9-LTYPE1
 62
     7
100
AcDbVertex
100
AcDb2dVertex
 10
-83.77542
 20
-391.582472
 30
0.0
  0
VERTEX
  5
FC
100
AcDbEntity
  8
0
  6
AI9-LTYPE1
 62
     7
100
AcDbVertex
100
AcDb2dVertex
 10
-80.969735
 20
-391.582472
 30
0.0
  0
VERTEX
  5
FD
100
AcDbEntity
  8
0
  6
AI9-LTYPE1
 62
     7
100
AcDbVertex
100
AcDb2dVertex
 10
-82.372578
 20
-400.000218
 30
0.0
  0
SEQEND
  5
FE
100
AcDbEntity
  8
0
  6
AI9-LTYPE1
 62
     7
  0
HATCH
  5
F9
100
AcDbEntity
  8
0
 62
     7
100
AcDbHatch
 10
0.0
 20
0.0
 30
0.0
210
0.0
220
0.0
230
1.0
  2
SOLID
 70
     1
 71
     0
 91
        1
 92
        3
 72
     0
 73
     1
 93
        3
 10
-83.77542046440972
 20
-391.58247205946179
 10
-80.969734700520831
 20
-391.58247205946179
 10
-82.372577582465269
 20
-400.00021837022564
 97
        0
 75
     0
 76
     1
 98
        1
 10
0.0
 20
0.0
  0
POLYLINE
  5
F4
100
AcDbEntity
  8
0
  6
AI9-LTYPE1
 62
     7
100
AcDb2dPolyline
 66
     1
 10
0.0
 20
0.0
 30
0.0
 70
     1
  0
VERTEX
  5
F5
100
AcDbEntity
  8
0
  6
AI9-LTYPE1
 62
     7
100
AcDbVertex
100
AcDb2dVertex
 10
-83.77542
 20
391.582472
 30
0.0
  0
VERTEX
  5
F6
100
AcDbEntity
  8
0
  6
AI9-LTYPE1
 62
     7
100
AcDbVertex
100
AcDb2dVertex
 10
-80.969735
 20
391.582472
 30
0.0
  0
VERTEX
  5
F7
100
AcDbEntity
  8
0
  6
AI9-LTYPE1
 62
     7
100
AcDbVertex
100
AcDb2dVertex
 10
-82.372578
 20
399.999874
 30
0.0
  0
SEQEND
  5
F8
100
AcDbEntity
  8
0
  6
AI9-LTYPE1
 62
     7
  0
HATCH
  5
F3
100
AcDbEntity
  8
0
 62
     7
100
AcDbHatch
 10
0.0
 20
0.0
 30
0.0
210
0.0
220
0.0
230
1.0
  2
SOLID
 70
     1
 71
     0
 91
        1
 92
        3
 72
     0
 73
     1
 93
        3
 10
-82.372577582465269
 20
399.99987386067704
 10
-80.969734700520831
 20
391.58247205946179
 10
-83.77542046440972
 20
391.58247205946179
 97
        0
 75
     0
 76
     1
 98
        1
 10
0.0
 20
0.0
  0
MTEXT
  5
F2
100
AcDbEntity
  8
0
 62
     7
100
AcDbMText
 10
-104.54092
 20
-25.823575
 30
0.0
 40
20.0
 41
0.0
 71
     1
 72
     2
  1
\fTxt|b0|i0;800
  7
STD
210
0.0
220
0.0
230
1.0
 11
0.0
 21
1.0
 31
0.0
  0
INSERT
  5
EE
100
AcDbEntity
  8
0
 62
     7
100
AcDbBlockReference
  2
AI9-BLK24
 10
111.354788
 20
-400.000218
 30
0.0
  0
INSERT
  5
E9
100
AcDbEntity
  8
0
 62
     7
100
AcDbBlockReference
  2
AI9-BLK23
 10
104.896956
 20
400.000046
 30
0.0
  0
INSERT
  5
E4
100
AcDbEntity
  8
0
  6
AI9-LTYPE1
 62
     7
100
AcDbBlockReference
  2
AI9-BLK22
 10
-82.372578
 20
399.999874
 30
0.0
  0
ENDBLK
  5
102
100
AcDbEntity
  8
0
100
AcDbBlockEnd
  0
BLOCK
  5
E5
100
AcDbEntity
  8
0
  6
AI9-LTYPE1
 62
     7
100
AcDbBlockBegin
  2
AI9-BLK22
 70
     0
 10
0.0
 20
0.0
 30
0.0
  3
AI9-BLK22
  1

  0
CIRCLE
  5
E6
100
AcDbEntity
  8
0
 62
     7
100
AcDbCircle
 10
0.0
 20
0.0
 30
0.0
 40
0.03514
  0
ENDBLK
  5
E7
100
AcDbEntity
  8
0
100
AcDbBlockEnd
  0
BLOCK
  5
EA
100
AcDbEntity
  8
0
 62
     7
100
AcDbBlockBegin
  2
AI9-BLK23
 70
     0
 10
0.0
 20
0.0
 30
0.0
  3
AI9-BLK23
  1

  0
CIRCLE
  5
EB
100
AcDbEntity
  8
0
 62
     7
100
AcDbCircle
 10
0.0
 20
-0.000172
 30
0.0
 40
0.035484
  0
ENDBLK
  5
EC
100
AcDbEntity
  8
0
100
AcDbBlockEnd
  0
BLOCK
  5
EF
100
AcDbEntity
  8
0
 62
     7
100
AcDbBlockBegin
  2
AI9-BLK24
 70
     0
 10
0.0
 20
0.0
 30
0.0
  3
AI9-BLK24
  1

  0
CIRCLE
  5
F0
100
AcDbEntity
  8
0
 62
     7
100
AcDbCircle
 10
0.0
 20
0.0
 30
0.0
 40
0.03514
  0
ENDBLK
  5
F1
100
AcDbEntity
  8
0
100
AcDbBlockEnd
  0
BLOCK
  5
125
100
AcDbEntity
  8
0
 62
     7
100
AcDbBlockBegin
  2
AI9-BLK25
 70
     0
 10
0.0
 20
0.0
 30
0.0
  3
AI9-BLK25
  1

  0
LINE
  5
143
100
AcDbEntity
  8
0
  6
AI9-LTYPE1
 62
     7
100
AcDbLine
 10
50.000049
 20
-35.943715
 30
0.0
 11
50.000049
 21
13.275675
 31
0.0
  0
LINE
  5
142
100
AcDbEntity
  8
0
  6
AI9-LTYPE1
 62
     7
100
AcDbLine
 10
-41.582303
 20
9.066802
 30
0.0
 11
41.582992
 21
9.066802
 31
0.0
  0
POLYLINE
  5
13D
100
AcDbEntity
  8
0
  6
AI9-LTYPE1
 62
     7
100
AcDb2dPolyline
 66
     1
 10
0.0
 20
0.0
 30
0.0
 70
     1
  0
VERTEX
  5
13E
100
AcDbEntity
  8
0
  6
AI9-LTYPE1
 62
     7
100
AcDbVertex
100
AcDb2dVertex
 10
-41.582303
 20
10.469645
 30
0.0
  0
VERTEX
  5
13F
100
AcDbEntity
  8
0
  6
AI9-LTYPE1
 62
     7
100
AcDbVertex
100
AcDb2dVertex
 10
-41.582303
 20
7.663959
 30
0.0
  0
VERTEX
  5
140
100
AcDbEntity
  8
0
  6
AI9-LTYPE1
 62
     7
100
AcDbVertex
100
AcDb2dVertex
 10
-50.000049
 20
9.066802
 30
0.0
  0
SEQEND
  5
141
100
AcDbEntity
  8
0
  6
AI9-LTYPE1
 62
     7
  0
HATCH
  5
13C
100
AcDbEntity
  8
0
 62
     7
100
AcDbHatch
 10
0.0
 20
0.0
 30
0.0
210
0.0
220
0.0
230
1.0
  2
SOLID
 70
     1
 71
     0
 91
        1
 92
        3
 72
     0
 73
     1
 93
        3
 10
-41.582302517361107
 20
10.469645182291666
 10
-41.582302517361107
 20
7.6639594184027775
 10
-50.000048828124996
 20
9.0668023003472218
 97
        0
 75
     0
 76
     1
 98
        1
 10
0.0
 20
0.0
  0
POLYLINE
  5
137
100
AcDbEntity
  8
0
  6
AI9-LTYPE1
 62
     7
100
AcDb2dPolyline
 66
     1
 10
0.0
 20
0.0
 30
0.0
 70
     1
  0
VERTEX
  5
138
100
AcDbEntity
  8
0
  6
AI9-LTYPE1
 62
     7
100
AcDbVertex
100
AcDb2dVertex
 10
41.582992
 20
10.469645
 30
0.0
  0
VERTEX
  5
139
100
AcDbEntity
  8
0
  6
AI9-LTYPE1
 62
     7
100
AcDbVertex
100
AcDb2dVertex
 10
41.582992
 20
7.663959
 30
0.0
  0
VERTEX
  5
13A
100
AcDbEntity
  8
0
  6
AI9-LTYPE1
 62
     7
100
AcDbVertex
100
AcDb2dVertex
 10
50.000049
 20
9.066802
 30
0.0
  0
SEQEND
  5
13B
100
AcDbEntity
  8
0
  6
AI9-LTYPE1
 62
     7
  0
HATCH
  5
136
100
AcDbEntity
  8
0
 62
     7
100
AcDbHatch
 10
0.0
 20
0.0
 30
0.0
210
0.0
220
0.0
230
1.0
  2
SOLID
 70
     1
 71
     0
 91
        1
 92
        3
 72
     0
 73
     1
 93
        3
 10
50.000048828124996
 20
9.0668023003472218
 10
41.58299153645833
 20
7.6639594184027775
 10
41.58299153645833
 20
10.469645182291666
 97
        0
 75
     0
 76
     1
 98
        1
 10
0.0
 20
0.0
  0
MTEXT
  5
135
100
AcDbEntity
  8
0
 62
     7
100
AcDbMText
 10
-22.601204
 20
31.235145
 30
0.0
 40
20.0
 41
0.0
 71
     1
 72
     2
  1
\fTxt|b0|i0;100
  7
STD
210
0.0
220
0.0
230
1.0
 11
1.000001
 21
0.0
 31
0.0
  0
INSERT
  5
131
100
AcDbEntity
  8
0
 62
     7
100
AcDbBlockReference
  2
AI9-BLK28
 10
-49.999704
 20
-38.048324
 30
0.0
  0
INSERT
  5
12C
100
AcDbEntity
  8
0
 62
     7
100
AcDbBlockReference
  2
AI9-BLK27
 10
50.000049
 20
-38.048151
 30
0.0
  0
INSERT
  5
127
100
AcDbEntity
  8
0
 62
     7
100
AcDbBlockReference
  2
AI9-BLK26
 10
50.000049
 20
9.066975
 30
0.0
  0
ENDBLK
  5
144
100
AcDbEntity
  8
0
100
AcDbBlockEnd
  0
BLOCK
  5
128
100
AcDbEntity
  8
0
 62
     7
100
AcDbBlockBegin
  2
AI9-BLK26
 70
     0
 10
0.0
 20
0.0
 30
0.0
  3
AI9-BLK26
  1

  0
CIRCLE
  5
129
100
AcDbEntity
  8
0
 62
     7
100
AcDbCircle
 10
0.0
 20
-0.000172
 30
0.0
 40
0.03514
  0
ENDBLK
  5
12A
100
AcDbEntity
  8
0
100
AcDbBlockEnd
  0
BLOCK
  5
12D
100
AcDbEntity
  8
0
 62
     7
100
AcDbBlockBegin
  2
AI9-BLK27
 70
     0
 10
0.0
 20
0.0
 30
0.0
  3
AI9-BLK27
  1

  0
CIRCLE
  5
12E
100
AcDbEntity
  8
0
 62
     7
100
AcDbCircle
 10
0.0
 20
-0.000172
 30
0.0
 40
0.03514
  0
ENDBLK
  5
12F
100
AcDbEntity
  8
0
100
AcDbBlockEnd
  0
BLOCK
  5
132
100
AcDbEntity
  8
0
 62
     7
100
AcDbBlockBegin
  2
AI9-BLK28
 70
     0
 10
0.0
 20
0.0
 30
0.0
  3
AI9-BLK28
  1

  0
CIRCLE
  5
133
100
AcDbEntity
  8
0
 62
     7
100
AcDbCircle
 10
0.0
 20
0.0
 30
0.0
 40
0.035484
  0
ENDBLK
  5
134
100
AcDbEntity
  8
0
100
AcDbBlockEnd
  0
BLOCK
  5
147
100
AcDbEntity
  8
0
  6
AI9-LTYPE1
 62
     7
100
AcDbBlockBegin
  2
AI9-BLK29
 70
     0
 10
0.0
 20
0.0
 30
0.0
  3
AI9-BLK29
  1

  0
LINE
  5
165
100
AcDbEntity
  8
0
  6
AI9-LTYPE1
 62
     7
100
AcDbLine
 10
184.999561
 20
13.414427
 30
0.0
 11
184.999561
 21
62.633817
 31
0.0
  0
LINE
  5
164
100
AcDbEntity
  8
0
  6
AI9-LTYPE1
 62
     7
100
AcDbLine
 10
-176.582503
 20
58.424944
 30
0.0
 11
176.582503
 21
58.424944
 31
0.0
  0
POLYLINE
  5
15F
100
AcDbEntity
  8
0
  6
AI9-LTYPE1
 62
     7
100
AcDb2dPolyline
 66
     1
 10
0.0
 20
0.0
 30
0.0
 70
     1
  0
VERTEX
  5
160
100
AcDbEntity
  8
0
  6
AI9-LTYPE1
 62
     7
100
AcDbVertex
100
AcDb2dVertex
 10
-176.582503
 20
59.827787
 30
0.0
  0
VERTEX
  5
161
100
AcDbEntity
  8
0
  6
AI9-LTYPE1
 62
     7
100
AcDbVertex
100
AcDb2dVertex
 10
-176.582503
 20
57.022101
 30
0.0
  0
VERTEX
  5
162
100
AcDbEntity
  8
0
  6
AI9-LTYPE1
 62
     7
100
AcDbVertex
100
AcDb2dVertex
 10
-185.00025
 20
58.424944
 30
0.0
  0
SEQEND
  5
163
100
AcDbEntity
  8
0
  6
AI9-LTYPE1
 62
     7
  0
HATCH
  5
15E
100
AcDbEntity
  8
0
 62
     7
100
AcDbHatch
 10
0.0
 20
0.0
 30
0.0
210
0.0
220
0.0
230
1.0
  2
SOLID
 70
     1
 71
     0
 91
        1
 92
        3
 72
     0
 73
     1
 93
        3
 10
-176.58250325520831
 20
59.827786593967005
 10
-176.58250325520831
 20
57.022100830078116
 10
-185.00024956597221
 20
58.424943712022561
 97
        0
 75
     0
 76
     1
 98
        1
 10
0.0
 20
0.0
  0
POLYLINE
  5
159
100
AcDbEntity
  8
0
  6
AI9-LTYPE1
 62
     7
100
AcDb2dPolyline
 66
     1
 10
0.0
 20
0.0
 30
0.0
 70
     1
  0
VERTEX
  5
15A
100
AcDbEntity
  8
0
  6
AI9-LTYPE1
 62
     7
100
AcDbVertex
100
AcDb2dVertex
 10
176.582503
 20
59.827787
 30
0.0
  0
VERTEX
  5
15B
100
AcDbEntity
  8
0
  6
AI9-LTYPE1
 62
     7
100
AcDbVertex
100
AcDb2dVertex
 10
176.582503
 20
57.022101
 30
0.0
  0
VERTEX
  5
15C
100
AcDbEntity
  8
0
  6
AI9-LTYPE1
 62
     7
100
AcDbVertex
100
AcDb2dVertex
 10
184.999561
 20
58.424944
 30
0.0
  0
SEQEND
  5
15D
100
AcDbEntity
  8
0
  6
AI9-LTYPE1
 62
     7
  0
HATCH
  5
158
100
AcDbEntity
  8
0
 62
     7
100
AcDbHatch
 10
0.0
 20
0.0
 30
0.0
210
0.0
220
0.0
230
1.0
  2
SOLID
 70
     1
 71
     0
 91
        1
 92
        3
 72
     0
 73
     1
 93
        3
 10
184.99956054687499
 20
58.424943712022561
 10
176.58250325520831
 20
57.022100830078116
 10
176.58250325520831
 20
59.827786593967005
 97
        0
 75
     0
 76
     1
 98
        1
 10
0.0
 20
0.0
  0
MTEXT
  5
157
100
AcDbEntity
  8
0
 62
     7
100
AcDbMText
 10
-27.431917
 20
80.593286
 30
0.0
 40
20.0
 41
0.0
 71
     1
 72
     2
  1
\fTxt|b0|i0;370
  7
STD
210
0.0
220
0.0
230
1.0
 11
1.000001
 21
0.0
 31
0.0
  0
INSERT
  5
153
100
AcDbEntity
  8
0
 62
     7
100
AcDbBlockReference
  2
AI9-BLK32
 10
-185.00025
 20
-87.406809
 30
0.0
  0
INSERT
  5
14E
100
AcDbEntity
  8
0
 62
     7
100
AcDbBlockReference
  2
AI9-BLK31
 10
184.999905
 20
11.309818
 30
0.0
  0
INSERT
  5
149
100
AcDbEntity
  8
0
  6
AI9-LTYPE1
 62
     7
100
AcDbBlockReference
  2
AI9-BLK30
 10
184.999905
 20
58.424944
 30
0.0
  0
ENDBLK
  5
166
100
AcDbEntity
  8
0
100
AcDbBlockEnd
  0
BLOCK
  5
14A
100
AcDbEntity
  8
0
  6
AI9-LTYPE1
 62
     7
100
AcDbBlockBegin
  2
AI9-BLK30
 70
     0
 10
0.0
 20
0.0
 30
0.0
  3
AI9-BLK30
  1

  0
CIRCLE
  5
14B
100
AcDbEntity
  8
0
 62
     7
100
AcDbCircle
 10
0.0
 20
0.0
 30
0.0
 40
0.035484
  0
ENDBLK
  5
14C
100
AcDbEntity
  8
0
100
AcDbBlockEnd
  0
BLOCK
  5
14F
100
AcDbEntity
  8
0
 62
     7
100
AcDbBlockBegin
  2
AI9-BLK31
 70
     0
 10
0.0
 20
0.0
 30
0.0
  3
AI9-BLK31
  1

  0
CIRCLE
  5
150
100
AcDbEntity
  8
0
 62
     7
100
AcDbCircle
 10
0.0
 20
0.0
 30
0.0
 40
0.035484
  0
ENDBLK
  5
151
100
AcDbEntity
  8
0
100
AcDbBlockEnd
  0
BLOCK
  5
154
100
AcDbEntity
  8
0
 62
     7
100
AcDbBlockBegin
  2
AI9-BLK32
 70
     0
 10
0.0
 20
0.0
 30
0.0
  3
AI9-BLK32
  1

  0
CIRCLE
  5
155
100
AcDbEntity
  8
0
 62
     7
100
AcDbCircle
 10
0.0
 20
-0.000172
 30
0.0
 40
0.03514
  0
ENDBLK
  5
156
100
AcDbEntity
  8
0
100
AcDbBlockEnd
  0
BLOCK
  5
169
100
AcDbEntity
  8
0
  6
AI9-LTYPE1
 62
     7
100
AcDbBlockBegin
  2
AI9-BLK33
 70
     0
 10
0.0
 20
0.0
 30
0.0
  3
AI9-BLK33
  1

  0
LINE
  5
188
100
AcDbEntity
  8
0
  6
AI9-LTYPE1
 62
     7
100
AcDbLine
 10
-64.999995
 20
-88.107197
 30
0.0
 11
-64.999995
 21
65.438297
 31
0.0
  0
LINE
  5
187
100
AcDbEntity
  8
0
  6
AI9-LTYPE1
 62
     7
100
AcDbLine
 10
64.999995
 20
-82.498237
 30
0.0
 11
64.999995
 21
65.438297
 31
0.0
  0
LINE
  5
186
100
AcDbEntity
  8
0
  6
AI9-LTYPE1
 62
     7
100
AcDbLine
 10
-56.582248
 20
61.229424
 30
0.0
 11
56.582248
 21
61.229424
 31
0.0
  0
POLYLINE
  5
181
100
AcDbEntity
  8
0
  6
AI9-LTYPE1
 62
     7
100
AcDb2dPolyline
 66
     1
 10
0.0
 20
0.0
 30
0.0
 70
     1
  0
VERTEX
  5
182
100
AcDbEntity
  8
0
  6
AI9-LTYPE1
 62
     7
100
AcDbVertex
100
AcDb2dVertex
 10
-56.582248
 20
62.632267
 30
0.0
  0
VERTEX
  5
183
100
AcDbEntity
  8
0
  6
AI9-LTYPE1
 62
     7
100
AcDbVertex
100
AcDb2dVertex
 10
-56.582248
 20
59.826581
 30
0.0
  0
VERTEX
  5
184
100
AcDbEntity
  8
0
  6
AI9-LTYPE1
 62
     7
100
AcDbVertex
100
AcDb2dVertex
 10
-64.999995
 20
61.229424
 30
0.0
  0
SEQEND
  5
185
100
AcDbEntity
  8
0
  6
AI9-LTYPE1
 62
     7
  0
HATCH
  5
180
100
AcDbEntity
  8
0
 62
     7
100
AcDbHatch
 10
0.0
 20
0.0
 30
0.0
210
0.0
220
0.0
230
1.0
  2
SOLID
 70
     1
 71
     0
 91
        1
 92
        3
 72
     0
 73
     1
 93
        3
 10
-56.582248263888886
 20
62.632266574435761
 10
-56.582248263888886
 20
59.826580810546872
 10
-64.999994574652774
 20
61.229423692491316
 97
        0
 75
     0
 76
     1
 98
        1
 10
0.0
 20
0.0
  0
POLYLINE
  5
17B
100
AcDbEntity
  8
0
  6
AI9-LTYPE1
 62
     7
100
AcDb2dPolyline
 66
     1
 10
0.0
 20
0.0
 30
0.0
 70
     1
  0
VERTEX
  5
17C
100
AcDbEntity
  8
0
  6
AI9-LTYPE1
 62
     7
100
AcDbVertex
100
AcDb2dVertex
 10
56.582248
 20
62.632267
 30
0.0
  0
VERTEX
  5
17D
100
AcDbEntity
  8
0
  6
AI9-LTYPE1
 62
     7
100
AcDbVertex
100
AcDb2dVertex
 10
56.582248
 20
59.826581
 30
0.0
  0
VERTEX
  5
17E
100
AcDbEntity
  8
0
  6
AI9-LTYPE1
 62
     7
100
AcDbVertex
100
AcDb2dVertex
 10
64.999995
 20
61.229424
 30
0.0
  0
SEQEND
  5
17F
100
AcDbEntity
  8
0
  6
AI9-LTYPE1
 62
     7
  0
HATCH
  5
17A
100
AcDbEntity
  8
0
 62
     7
100
AcDbHatch
 10
0.0
 20
0.0
 30
0.0
210
0.0
220
0.0
230
1.0
  2
SOLID
 70
     1
 71
     0
 91
        1
 92
        3
 72
     0
 73
     1
 93
        3
 10
64.999994574652774
 20
61.229423692491316
 10
56.582248263888886
 20
59.826580810546872
 10
56.582248263888886
 20
62.632266574435761
 97
        0
 75
     0
 76
     1
 98
        1
 10
0.0
 20
0.0
  0
MTEXT
  5
179
100
AcDbEntity
  8
0
 62
     7
100
AcDbMText
 10
-24.209375
 20
83.397766
 30
0.0
 40
20.0
 41
0.0
 71
     1
 72
     2
  1
\fTxt|b0|i0;130
  7
STD
210
0.0
220
0.0
230
1.0
 11
1.000001
 21
0.0
 31
0.0
  0
INSERT
  5
175
100
AcDbEntity
  8
0
 62
     7
100
AcDbBlockReference
  2
AI9-BLK36
 10
-64.999995
 20
-90.211289
 30
0.0
  0
INSERT
  5
170
100
AcDbEntity
  8
0
 62
     7
100
AcDbBlockReference
  2
AI9-BLK35
 10
64.999995
 20
-84.60233
 30
0.0
  0
INSERT
  5
16B
100
AcDbEntity
  8
0
  6
AI9-LTYPE1
 62
     7
100
AcDbBlockReference
  2
AI9-BLK34
 10
64.999995
 20
61.229596
 30
0.0
  0
ENDBLK
  5
189
100
AcDbEntity
  8
0
100
AcDbBlockEnd
  0
BLOCK
  5
16C
100
AcDbEntity
  8
0
  6
AI9-LTYPE1
 62
     7
100
AcDbBlockBegin
  2
AI9-BLK34
 70
     0
 10
0.0
 20
0.0
 30
0.0
  3
AI9-BLK34
  1

  0
CIRCLE
  5
16D
100
AcDbEntity
  8
0
 62
     7
100
AcDbCircle
 10
0.0
 20
-0.000172
 30
0.0
 40
0.03514
  0
ENDBLK
  5
16E
100
AcDbEntity
  8
0
100
AcDbBlockEnd
  0
BLOCK
  5
171
100
AcDbEntity
  8
0
 62
     7
100
AcDbBlockBegin
  2
AI9-BLK35
 70
     0
 10
0.0
 20
0.0
 30
0.0
  3
AI9-BLK35
  1

  0
CIRCLE
  5
172
100
AcDbEntity
  8
0
 62
     7
100
AcDbCircle
 10
0.0
 20
-0.000172
 30
0.0
 40
0.03514
  0
ENDBLK
  5
173
100
AcDbEntity
  8
0
100
AcDbBlockEnd
  0
BLOCK
  5
176
100
AcDbEntity
  8
0
 62
     7
100
AcDbBlockBegin
  2
AI9-BLK36
 70
     0
 10
0.0
 20
0.0
 30
0.0
  3
AI9-BLK36
  1

  0
CIRCLE
  5
177
100
AcDbEntity
  8
0
 62
     7
100
AcDbCircle
 10
0.0
 20
-0.000172
 30
0.0
 40
0.03514
  0
ENDBLK
  5
178
100
AcDbEntity
  8
0
100
AcDbBlockEnd
  0
BLOCK
  5
18E
100
AcDbEntity
  8
0
 62
     7
100
AcDbBlockBegin
  2
AI9-BLK37
 70
     0
 10
0.0
 20
0.0
 30
0.0
  3
AI9-BLK37
  1

  0
LINE
  5
1AD
100
AcDbEntity
  8
0
  6
AI9-LTYPE1
 62
     7
100
AcDbLine
 10
13.961594
 20
59.999783
 30
0.0
 11
7.652246
 21
59.999783
 31
0.0
  0
LINE
  5
1AC
100
AcDbEntity
  8
0
  6
AI9-LTYPE1
 62
     7
100
AcDbLine
 10
13.961594
 20
-60.000127
 30
0.0
 11
7.652246
 21
-60.000127
 31
0.0
  0
LINE
  5
1AB
100
AcDbEntity
  8
0
  6
AI9-LTYPE1
 62
     7
100
AcDbLine
 10
11.861464
 20
51.582381
 30
0.0
 11
11.861464
 21
-51.582726
 31
0.0
  0
POLYLINE
  5
1A6
100
AcDbEntity
  8
0
  6
AI9-LTYPE1
 62
     7
100
AcDb2dPolyline
 66
     1
 10
0.0
 20
0.0
 30
0.0
 70
     1
  0
VERTEX
  5
1A7
100
AcDbEntity
  8
0
  6
AI9-LTYPE1
 62
     7
100
AcDbVertex
100
AcDb2dVertex
 10
10.457932
 20
51.582381
 30
0.0
  0
VERTEX
  5
1A8
100
AcDbEntity
  8
0
  6
AI9-LTYPE1
 62
     7
100
AcDbVertex
100
AcDb2dVertex
 10
13.264307
 20
51.582381
 30
0.0
  0
VERTEX
  5
1A9
100
AcDbEntity
  8
0
  6
AI9-LTYPE1
 62
     7
100
AcDbVertex
100
AcDb2dVertex
 10
11.861464
 20
59.999783
 30
0.0
  0
SEQEND
  5
1AA
100
AcDbEntity
  8
0
  6
AI9-LTYPE1
 62
     7
  0
HATCH
  5
1A5
100
AcDbEntity
  8
0
 62
     7
100
AcDbHatch
 10
0.0
 20
0.0
 30
0.0
210
0.0
220
0.0
230
1.0
  2
SOLID
 70
     1
 71
     0
 91
        1
 92
        3
 72
     0
 73
     1
 93
        3
 10
11.861463758680555
 20
59.999782986111107
 10
13.264306640625
 20
51.58238118489583
 10
10.457931857638888
 20
51.58238118489583
 97
        0
 75
     0
 76
     1
 98
        1
 10
0.0
 20
0.0
  0
POLYLINE
  5
1A0
100
AcDbEntity
  8
0
  6
AI9-LTYPE1
 62
     7
100
AcDb2dPolyline
 66
     1
 10
0.0
 20
0.0
 30
0.0
 70
     1
  0
VERTEX
  5
1A1
100
AcDbEntity
  8
0
  6
AI9-LTYPE1
 62
     7
100
AcDbVertex
100
AcDb2dVertex
 10
10.457932
 20
-51.582726
 30
0.0
  0
VERTEX
  5
1A2
100
AcDbEntity
  8
0
  6
AI9-LTYPE1
 62
     7
100
AcDbVertex
100
AcDb2dVertex
 10
13.264307
 20
-51.582726
 30
0.0
  0
VERTEX
  5
1A3
100
AcDbEntity
  8
0
  6
AI9-LTYPE1
 62
     7
100
AcDbVertex
100
AcDb2dVertex
 10
11.861464
 20
-60.000127
 30
0.0
  0
SEQEND
  5
1A4
100
AcDbEntity
  8
0
  6
AI9-LTYPE1
 62
     7
  0
HATCH
  5
19F
100
AcDbEntity
  8
0
 62
     7
100
AcDbHatch
 10
0.0
 20
0.0
 30
0.0
210
0.0
220
0.0
230
1.0
  2
SOLID
 70
     1
 71
     0
 91
        1
 92
        3
 72
     0
 73
     1
 93
        3
 10
10.457931857638888
 20
-51.582725694444441
 10
13.264306640625
 20
-51.582725694444441
 10
11.861463758680555
 20
-60.000127495659719
 97
        0
 75
     0
 76
     1
 98
        1
 10
0.0
 20
0.0
  0
MTEXT
  5
19E
100
AcDbEntity
  8
0
 62
     7
100
AcDbMText
 10
-10.307224
 20
-24.209031
 30
0.0
 40
20.0
 41
0.0
 71
     1
 72
     2
  1
\fTxt|b0|i0;120
  7
STD
210
0.0
220
0.0
230
1.0
 11
0.0
 21
1.0
 31
0.0
  0
INSERT
  5
19A
100
AcDbEntity
  8
0
 62
     7
100
AcDbBlockReference
  2
AI9-BLK40
 10
16.066203
 20
59.999955
 30
0.0
  0
INSERT
  5
195
100
AcDbEntity
  8
0
 62
     7
100
AcDbBlockReference
  2
AI9-BLK39
 10
16.066203
 20
-59.999955
 30
0.0
  0
INSERT
  5
190
100
AcDbEntity
  8
0
 62
     7
100
AcDbBlockReference
  2
AI9-BLK38
 10
11.861119
 20
-59.999955
 30
0.0
  0
ENDBLK
  5
1AE
100
AcDbEntity
  8
0
100
AcDbBlockEnd
  0
BLOCK
  5
191
100
AcDbEntity
  8
0
 62
     7
100
AcDbBlockBegin
  2
AI9-BLK38
 70
     0
 10
0.0
 20
0.0
 30
0.0
  3
AI9-BLK38
  1

  0
CIRCLE
  5
192
100
AcDbEntity
  8
0
 62
     7
100
AcDbCircle
 10
0.0
 20
-0.000172
 30
0.0
 40
0.035484
  0
ENDBLK
  5
193
100
AcDbEntity
  8
0
100
AcDbBlockEnd
  0
BLOCK
  5
196
100
AcDbEntity
  8
0
 62
     7
100
AcDbBlockBegin
  2
AI9-BLK39
 70
     0
 10
0.0
 20
0.0
 30
0.0
  3
AI9-BLK39
  1

  0
CIRCLE
  5
197
100
AcDbEntity
  8
0
 62
     7
100
AcDbCircle
 10
0.0
 20
-0.000172
 30
0.0
 40
0.035484
  0
ENDBLK
  5
198
100
AcDbEntity
  8
0
100
AcDbBlockEnd
  0
BLOCK
  5
19B
100
AcDbEntity
  8
0
 62
     7
100
AcDbBlockBegin
  2
AI9-BLK40
 70
     0
 10
0.0
 20
0.0
 30
0.0
  3
AI9-BLK40
  1

  0
CIRCLE
  5
19C
100
AcDbEntity
  8
0
 62
     7
100
AcDbCircle
 10
0.0
 20
-0.000172
 30
0.0
 40
0.035484
  0
ENDBLK
  5
19D
100
AcDbEntity
  8
0
100
AcDbBlockEnd
  0
BLOCK
  5
1B5
100
AcDbEntity
  8
0
  6
AI9-LTYPE2
 62
     7
100
AcDbBlockBegin
  2
AI9-BLK41
 70
     0
 10
0.0
 20
0.0
 30
0.0
  3
AI9-BLK41
  1

  0
LINE
  5
1D4
100
AcDbEntity
  8
0
  6
AI9-LTYPE1
 62
     7
100
AcDbLine
 10
-359.99999
 20
-78.487974
 30
0.0
 11
-359.99999
 21
62.955244
 31
0.0
  0
LINE
  5
1D3
100
AcDbEntity
  8
0
  6
AI9-LTYPE1
 62
     7
100
AcDbLine
 10
359.99999
 20
-85.624489
 30
0.0
 11
359.99999
 21
62.955244
 31
0.0
  0
LINE
  5
1D2
100
AcDbEntity
  8
0
  6
AI9-LTYPE1
 62
     7
100
AcDbLine
 10
-351.582416
 20
58.746716
 30
0.0
 11
351.582588
 21
58.746716
 31
0.0
  0
POLYLINE
  5
1CD
100
AcDbEntity
  8
0
  6
AI9-LTYPE1
 62
     7
100
AcDb2dPolyline
 66
     1
 10
0.0
 20
0.0
 30
0.0
 70
     1
  0
VERTEX
  5
1CE
100
AcDbEntity
  8
0
  6
AI9-LTYPE1
 62
     7
100
AcDbVertex
100
AcDb2dVertex
 10
-351.582416
 20
60.149559
 30
0.0
  0
VERTEX
  5
1CF
100
AcDbEntity
  8
0
  6
AI9-LTYPE1
 62
     7
100
AcDbVertex
100
AcDb2dVertex
 10
-351.582416
 20
57.343528
 30
0.0
  0
VERTEX
  5
1D0
100
AcDbEntity
  8
0
  6
AI9-LTYPE1
 62
     7
100
AcDbVertex
100
AcDb2dVertex
 10
-359.99999
 20
58.746716
 30
0.0
  0
SEQEND
  5
1D1
100
AcDbEntity
  8
0
  6
AI9-LTYPE1
 62
     7
  0
HATCH
  5
1CC
100
AcDbEntity
  8
0
 62
     7
100
AcDbHatch
 10
0.0
 20
0.0
 30
0.0
210
0.0
220
0.0
230
1.0
  2
SOLID
 70
     1
 71
     0
 91
        1
 92
        3
 72
     0
 73
     1
 93
        3
 10
-351.58241577148436
 20
60.149558512369786
 10
-351.58241577148436
 20
57.343528238932286
 10
-359.99998982747394
 20
58.746715630425342
 97
        0
 75
     0
 76
     1
 98
        1
 10
0.0
 20
0.0
  0
POLYLINE
  5
1C7
100
AcDbEntity
  8
0
  6
AI9-LTYPE1
 62
     7
100
AcDb2dPolyline
 66
     1
 10
0.0
 20
0.0
 30
0.0
 70
     1
  0
VERTEX
  5
1C8
100
AcDbEntity
  8
0
  6
AI9-LTYPE1
 62
     7
100
AcDbVertex
100
AcDb2dVertex
 10
351.582588
 20
60.149559
 30
0.0
  0
VERTEX
  5
1C9
100
AcDbEntity
  8
0
  6
AI9-LTYPE1
 62
     7
100
AcDbVertex
100
AcDb2dVertex
 10
351.582588
 20
57.343528
 30
0.0
  0
VERTEX
  5
1CA
100
AcDbEntity
  8
0
  6
AI9-LTYPE1
 62
     7
100
AcDbVertex
100
AcDb2dVertex
 10
359.99999
 20
58.746716
 30
0.0
  0
SEQEND
  5
1CB
100
AcDbEntity
  8
0
  6
AI9-LTYPE1
 62
     7
  0
HATCH
  5
1C6
100
AcDbEntity
  8
0
 62
     7
100
AcDbHatch
 10
0.0
 20
0.0
 30
0.0
210
0.0
220
0.0
230
1.0
  2
SOLID
 70
     1
 71
     0
 91
        1
 92
        3
 72
     0
 73
     1
 93
        3
 10
359.99998982747394
 20
58.746715630425342
 10
351.58258802625863
 20
57.343528238932286
 10
351.58258802625863
 20
60.149558512369786
 97
        0
 75
     0
 76
     1
 98
        1
 10
0.0
 20
0.0
  0
MTEXT
  5
1C5
100
AcDbEntity
  8
0
 62
     7
100
AcDbMText
 10
-27.431314
 20
80.915058
 30
0.0
 40
20.0
 41
0.0
 71
     1
 72
     2
  1
\fTxt|b0|i0;720
  7
STD
210
0.0
220
0.0
230
1.0
 11
1.000001
 21
0.0
 31
0.0
  0
INSERT
  5
1C1
100
AcDbEntity
  8
0
 62
     7
100
AcDbBlockReference
  2
AI9-BLK44
 10
-359.99999
 20
-80.592066
 30
0.0
  0
INSERT
  5
1BC
100
AcDbEntity
  8
0
 62
     7
100
AcDbBlockReference
  2
AI9-BLK43
 10
360.000076
 20
-87.728754
 30
0.0
  0
INSERT
  5
1B7
100
AcDbEntity
  8
0
  6
AI9-LTYPE2
 62
     7
100
AcDbBlockReference
  2
AI9-BLK42
 10
360.000076
 20
58.746888
 30
0.0
  0
ENDBLK
  5
1D5
100
AcDbEntity
  8
0
100
AcDbBlockEnd
  0
BLOCK
  5
1B8
100
AcDbEntity
  8
0
  6
AI9-LTYPE2
 62
     7
100
AcDbBlockBegin
  2
AI9-BLK42
 70
     0
 10
0.0
 20
0.0
 30
0.0
  3
AI9-BLK42
  1

  0
CIRCLE
  5
1B9
100
AcDbEntity
  8
0
 62
     7
100
AcDbCircle
 10
0.0
 20
-0.000172
 30
0.0
 40
0.035226
  0
ENDBLK
  5
1BA
100
AcDbEntity
  8
0
100
AcDbBlockEnd
  0
BLOCK
  5
1BD
100
AcDbEntity
  8
0
 62
     7
100
AcDbBlockBegin
  2
AI9-BLK43
 70
     0
 10
0.0
 20
0.0
 30
0.0
  3
AI9-BLK43
  1

  0
CIRCLE
  5
1BE
100
AcDbEntity
  8
0
 62
     7
100
AcDbCircle
 10
0.0
 20
0.0
 30
0.0
 40
0.035226
  0
ENDBLK
  5
1BF
100
AcDbEntity
  8
0
100
AcDbBlockEnd
  0
BLOCK
  5
1C2
100
AcDbEntity
  8
0
 62
     7
100
AcDbBlockBegin
  2
AI9-BLK44
 70
     0
 10
0.0
 20
0.0
 30
0.0
  3
AI9-BLK44
  1

  0
CIRCLE
  5
1C3
100
AcDbEntity
  8
0
 62
     7
100
AcDbCircle
 10
0.0
 20
-0.000172
 30
0.0
 40
0.035312
  0
ENDBLK
  5
1C4
100
AcDbEntity
  8
0
100
AcDbBlockEnd
  0
BLOCK
  5
1D8
100
AcDbEntity
  8
0
  6
AI9-LTYPE1
 62
     7
100
AcDbBlockBegin
  2
AI9-BLK45
 70
     0
 10
0.0
 20
0.0
 30
0.0
  3
AI9-BLK45
  1

  0
LINE
  5
1F7
100
AcDbEntity
  8
0
  6
AI9-LTYPE1
 62
     7
100
AcDbLine
 10
-48.168378
 20
49.99979
 30
0.0
 11
49.22206
 21
49.99979
 31
0.0
  0
LINE
  5
1F6
100
AcDbEntity
  8
0
  6
AI9-LTYPE1
 62
     7
100
AcDbLine
 10
-9.955723
 20
-50.000307
 30
0.0
 11
49.22206
 21
-50.000307
 31
0.0
  0
LINE
  5
1F5
100
AcDbEntity
  8
0
  6
AI9-LTYPE1
 62
     7
100
AcDbLine
 10
45.013187
 20
41.582389
 30
0.0
 11
45.013187
 21
-41.582905
 31
0.0
  0
POLYLINE
  5
1F0
100
AcDbEntity
  8
0
  6
AI9-LTYPE1
 62
     7
100
AcDb2dPolyline
 66
     1
 10
0.0
 20
0.0
 30
0.0
 70
     1
  0
VERTEX
  5
1F1
100
AcDbEntity
  8
0
  6
AI9-LTYPE1
 62
     7
100
AcDbVertex
100
AcDb2dVertex
 10
43.610344
 20
41.582389
 30
0.0
  0
VERTEX
  5
1F2
100
AcDbEntity
  8
0
  6
AI9-LTYPE1
 62
     7
100
AcDbVertex
100
AcDb2dVertex
 10
46.416202
 20
41.582389
 30
0.0
  0
VERTEX
  5
1F3
100
AcDbEntity
  8
0
  6
AI9-LTYPE1
 62
     7
100
AcDbVertex
100
AcDb2dVertex
 10
45.013187
 20
49.99979
 30
0.0
  0
SEQEND
  5
1F4
100
AcDbEntity
  8
0
  6
AI9-LTYPE1
 62
     7
  0
HATCH
  5
1EF
100
AcDbEntity
  8
0
 62
     7
100
AcDbHatch
 10
0.0
 20
0.0
 30
0.0
210
0.0
220
0.0
230
1.0
  2
SOLID
 70
     1
 71
     0
 91
        1
 92
        3
 72
     0
 73
     1
 93
        3
 10
45.013186984592011
 20
49.999790445963534
 10
46.416202121310761
 20
41.582388644748264
 10
43.610344102647566
 20
41.582388644748264
 97
        0
 75
     0
 76
     1
 98
        1
 10
0.0
 20
0.0
  0
POLYLINE
  5
1EA
100
AcDbEntity
  8
0
  6
AI9-LTYPE1
 62
     7
100
AcDb2dPolyline
 66
     1
 10
0.0
 20
0.0
 30
0.0
 70
     1
  0
VERTEX
  5
1EB
100
AcDbEntity
  8
0
  6
AI9-LTYPE1
 62
     7
100
AcDbVertex
100
AcDb2dVertex
 10
43.610344
 20
-41.582905
 30
0.0
  0
VERTEX
  5
1EC
100
AcDbEntity
  8
0
  6
AI9-LTYPE1
 62
     7
100
AcDbVertex
100
AcDb2dVertex
 10
46.416202
 20
-41.582905
 30
0.0
  0
VERTEX
  5
1ED
100
AcDbEntity
  8
0
  6
AI9-LTYPE1
 62
     7
100
AcDbVertex
100
AcDb2dVertex
 10
45.013187
 20
-50.000307
 30
0.0
  0
SEQEND
  5
1EE
100
AcDbEntity
  8
0
  6
AI9-LTYPE1
 62
     7
  0
HATCH
  5
1E9
100
AcDbEntity
  8
0
 62
     7
100
AcDbHatch
 10
0.0
 20
0.0
 30
0.0
210
0.0
220
0.0
230
1.0
  2
SOLID
 70
     1
 71
     0
 91
        1
 92
        3
 72
     0
 73
     1
 93
        3
 10
43.610344102647566
 20
-41.582905409071174
 10
46.416202121310761
 20
-41.582905409071174
 10
45.013186984592011
 20
-50.000307210286451
 97
        0
 75
     0
 76
     1
 98
        1
 10
0.0
 20
0.0
  0
MTEXT
  5
1E8
100
AcDbEntity
  8
0
 62
     7
100
AcDbMText
 10
22.844672
 20
-22.601464
 30
0.0
 40
20.0
 41
0.0
 71
     1
 72
     2
  1
\fTxt|b0|i0;100
  7
STD
210
0.0
220
0.0
230
1.0
 11
0.0
 21
1.0
 31
0.0
  0
INSERT
  5
1E4
100
AcDbEntity
  8
0
 62
     7
100
AcDbBlockReference
  2
AI9-BLK48
 10
-50.272728
 20
49.999963
 30
0.0
  0
INSERT
  5
1DF
100
AcDbEntity
  8
0
 62
     7
100
AcDbBlockReference
  2
AI9-BLK47
 10
-12.060074
 20
-50.000135
 30
0.0
  0
INSERT
  5
1DA
100
AcDbEntity
  8
0
  6
AI9-LTYPE1
 62
     7
100
AcDbBlockReference
  2
AI9-BLK46
 10
45.013273
 20
-50.000135
 30
0.0
  0
ENDBLK
  5
1F8
100
AcDbEntity
  8
0
100
AcDbBlockEnd
  0
BLOCK
  5
1DB
100
AcDbEntity
  8
0
  6
AI9-LTYPE1
 62
     7
100
AcDbBlockBegin
  2
AI9-BLK46
 70
     0
 10
0.0
 20
0.0
 30
0.0
  3
AI9-BLK46
  1

  0
CIRCLE
  5
1DC
100
AcDbEntity
  8
0
 62
     7
100
AcDbCircle
 10
0.0
 20
-0.000172
 30
0.0
 40
0.035226
  0
ENDBLK
  5
1DD
100
AcDbEntity
  8
0
100
AcDbBlockEnd
  0
BLOCK
  5
1E0
100
AcDbEntity
  8
0
 62
     7
100
AcDbBlockBegin
  2
AI9-BLK47
 70
     0
 10
0.0
 20
0.0
 30
0.0
  3
AI9-BLK47
  1

  0
CIRCLE
  5
1E1
100
AcDbEntity
  8
0
 62
     7
100
AcDbCircle
 10
0.0
 20
-0.000172
 30
0.0
 40
0.035226
  0
ENDBLK
  5
1E2
100
AcDbEntity
  8
0
100
AcDbBlockEnd
  0
BLOCK
  5
1E5
100
AcDbEntity
  8
0
 62
     7
100
AcDbBlockBegin
  2
AI9-BLK48
 70
     0
 10
0.0
 20
0.0
 30
0.0
  3
AI9-BLK48
  1

  0
CIRCLE
  5
1E6
100
AcDbEntity
  8
0
 62
     7
100
AcDbCircle
 10
0.0
 20
-0.000172
 30
0.0
 40
0.035226
  0
ENDBLK
  5
1E7
100
AcDbEntity
  8
0
100
AcDbBlockEnd
  0
BLOCK
  5
221
100
AcDbEntity
  8
0
 62
     7
100
AcDbBlockBegin
  2
AI9-BLK49
 70
     0
 10
0.0
 20
0.0
 30
0.0
  3
AI9-BLK49
  1

  0
LINE
  5
240
100
AcDbEntity
  8
0
  6
AI9-LTYPE1
 62
     7
100
AcDbLine
 10
-294.999995
 20
31.514958
 30
0.0
 11
-294.999995
 21
-35.949313
 31
0.0
  0
LINE
  5
23F
100
AcDbEntity
  8
0
  6
AI9-LTYPE1
 62
     7
100
AcDbLine
 10
294.999995
 20
34.895975
 30
0.0
 11
294.999995
 21
-35.949313
 31
0.0
  0
LINE
  5
23E
100
AcDbEntity
  8
0
  6
AI9-LTYPE1
 62
     7
100
AcDbLine
 10
-286.582421
 20
-31.740784
 30
0.0
 11
286.582593
 21
-31.740784
 31
0.0
  0
POLYLINE
  5
239
100
AcDbEntity
  8
0
  6
AI9-LTYPE1
 62
     7
100
AcDb2dPolyline
 66
     1
 10
0.0
 20
0.0
 30
0.0
 70
     1
  0
VERTEX
  5
23A
100
AcDbEntity
  8
0
  6
AI9-LTYPE1
 62
     7
100
AcDbVertex
100
AcDb2dVertex
 10
-286.582421
 20
-30.337597
 30
0.0
  0
VERTEX
  5
23B
100
AcDbEntity
  8
0
  6
AI9-LTYPE1
 62
     7
100
AcDbVertex
100
AcDb2dVertex
 10
-286.582421
 20
-33.143627
 30
0.0
  0
VERTEX
  5
23C
100
AcDbEntity
  8
0
  6
AI9-LTYPE1
 62
     7
100
AcDbVertex
100
AcDb2dVertex
 10
-294.999995
 20
-31.740784
 30
0.0
  0
SEQEND
  5
23D
100
AcDbEntity
  8
0
  6
AI9-LTYPE1
 62
     7
  0
HATCH
  5
238
100
AcDbEntity
  8
0
 62
     7
100
AcDbHatch
 10
0.0
 20
0.0
 30
0.0
210
0.0
220
0.0
230
1.0
  2
SOLID
 70
     1
 71
     0
 91
        1
 92
        3
 72
     0
 73
     1
 93
        3
 10
-286.58242119683155
 20
-30.337596978081596
 10
-286.58242119683155
 20
-33.143627251519092
 10
-294.99999525282118
 20
-31.740784369574651
 97
        0
 75
     0
 76
     1
 98
        1
 10
0.0
 20
0.0
  0
POLYLINE
  5
233
100
AcDbEntity
  8
0
  6
AI9-LTYPE1
 62
     7
100
AcDb2dPolyline
 66
     1
 10
0.0
 20
0.0
 30
0.0
 70
     1
  0
VERTEX
  5
234
100
AcDbEntity
  8
0
  6
AI9-LTYPE1
 62
     7
100
AcDbVertex
100
AcDb2dVertex
 10
286.582593
 20
-30.337597
 30
0.0
  0
VERTEX
  5
235
100
AcDbEntity
  8
0
  6
AI9-LTYPE1
 62
     7
100
AcDbVertex
100
AcDb2dVertex
 10
286.582593
 20
-33.143627
 30
0.0
  0
VERTEX
  5
236
100
AcDbEntity
  8
0
  6
AI9-LTYPE1
 62
     7
100
AcDbVertex
100
AcDb2dVertex
 10
294.999995
 20
-31.740784
 30
0.0
  0
SEQEND
  5
237
100
AcDbEntity
  8
0
  6
AI9-LTYPE1
 62
     7
  0
HATCH
  5
232
100
AcDbEntity
  8
0
 62
     7
100
AcDbHatch
 10
0.0
 20
0.0
 30
0.0
210
0.0
220
0.0
230
1.0
  2
SOLID
 70
     1
 71
     0
 91
        1
 92
        3
 72
     0
 73
     1
 93
        3
 10
294.99999525282118
 20
-31.740784369574651
 10
286.58259345160587
 20
-33.143627251519092
 10
286.58259345160587
 20
-30.337596978081596
 97
        0
 75
     0
 76
     1
 98
        1
 10
0.0
 20
0.0
  0
MTEXT
  5
231
100
AcDbEntity
  8
0
 62
     7
100
AcDbMText
 10
-27.431314
 20
-9.572097
 30
0.0
 40
20.0
 41
0.0
 71
     1
 72
     2
  1
\fTxt|b0|i0;590
  7
STD
210
0.0
220
0.0
230
1.0
 11
1.000001
 21
0.0
 31
0.0
  0
INSERT
  5
22D
100
AcDbEntity
  8
0
 62
     7
100
AcDbBlockReference
  2
AI9-BLK52
 10
-294.999995
 20
33.619395
 30
0.0
  0
INSERT
  5
228
100
AcDbEntity
  8
0
 62
     7
100
AcDbBlockReference
  2
AI9-BLK51
 10
294.999995
 20
37.000067
 30
0.0
  0
INSERT
  5
223
100
AcDbEntity
  8
0
 62
     7
100
AcDbBlockReference
  2
AI9-BLK50
 10
294.999995
 20
-31.740612
 30
0.0
  0
ENDBLK
  5
241
100
AcDbEntity
  8
0
100
AcDbBlockEnd
  0
BLOCK
  5
224
100
AcDbEntity
  8
0
 62
     7
100
AcDbBlockBegin
  2
AI9-BLK50
 70
     0
 10
0.0
 20
0.0
 30
0.0
  3
AI9-BLK50
  1

  0
CIRCLE
  5
225
100
AcDbEntity
  8
0
 62
     7
100
AcDbCircle
 10
0.0
 20
-0.000172
 30
0.0
 40
0.035312
  0
ENDBLK
  5
226
100
AcDbEntity
  8
0
100
AcDbBlockEnd
  0
BLOCK
  5
229
100
AcDbEntity
  8
0
 62
     7
100
AcDbBlockBegin
  2
AI9-BLK51
 70
     0
 10
0.0
 20
0.0
 30
0.0
  3
AI9-BLK51
  1

  0
CIRCLE
  5
22A
100
AcDbEntity
  8
0
 62
     7
100
AcDbCircle
 10
0.0
 20
0.000172
 30
0.0
 40
0.035312
  0
ENDBLK
  5
22B
100
AcDbEntity
  8
0
100
AcDbBlockEnd
  0
BLOCK
  5
22E
100
AcDbEntity
  8
0
 62
     7
100
AcDbBlockBegin
  2
AI9-BLK52
 70
     0
 10
0.0
 20
0.0
 30
0.0
  3
AI9-BLK52
  1

  0
CIRCLE
  5
22F
100
AcDbEntity
  8
0
 62
     7
100
AcDbCircle
 10
0.0
 20
-0.000172
 30
0.0
 40
0.035312
  0
ENDBLK
  5
230
100
AcDbEntity
  8
0
100
AcDbBlockEnd
  0
BLOCK
  5
244
100
AcDbEntity
  8
0
  6
AI9-LTYPE1
 62
     7
100
AcDbBlockBegin
  2
AI9-BLK53
 70
     0
 10
0.0
 20
0.0
 30
0.0
  3
AI9-BLK53
  1

  0
LINE
  5
263
100
AcDbEntity
  8
0
  6
AI9-LTYPE1
 62
     7
100
AcDbLine
 10
-359.99999
 20
-41.974871
 30
0.0
 11
-359.99999
 21
19.306143
 31
0.0
  0
LINE
  5
262
100
AcDbEntity
  8
0
  6
AI9-LTYPE1
 62
     7
100
AcDbLine
 10
359.99999
 20
-41.974871
 30
0.0
 11
359.99999
 21
19.306143
 31
0.0
  0
LINE
  5
261
100
AcDbEntity
  8
0
  6
AI9-LTYPE1
 62
     7
100
AcDbLine
 10
-351.582416
 20
15.09727
 30
0.0
 11
351.582588
 21
15.09727
 31
0.0
  0
POLYLINE
  5
25C
100
AcDbEntity
  8
0
  6
AI9-LTYPE1
 62
     7
100
AcDb2dPolyline
 66
     1
 10
0.0
 20
0.0
 30
0.0
 70
     1
  0
VERTEX
  5
25D
100
AcDbEntity
  8
0
  6
AI9-LTYPE1
 62
     7
100
AcDbVertex
100
AcDb2dVertex
 10
-351.582416
 20
16.500457
 30
0.0
  0
VERTEX
  5
25E
100
AcDbEntity
  8
0
  6
AI9-LTYPE1
 62
     7
100
AcDbVertex
100
AcDb2dVertex
 10
-351.582416
 20
13.694427
 30
0.0
  0
VERTEX
  5
25F
100
AcDbEntity
  8
0
  6
AI9-LTYPE1
 62
     7
100
AcDbVertex
100
AcDb2dVertex
 10
-359.99999
 20
15.09727
 30
0.0
  0
SEQEND
  5
260
100
AcDbEntity
  8
0
  6
AI9-LTYPE1
 62
     7
  0
HATCH
  5
25B
100
AcDbEntity
  8
0
 62
     7
100
AcDbHatch
 10
0.0
 20
0.0
 30
0.0
210
0.0
220
0.0
230
1.0
  2
SOLID
 70
     1
 71
     0
 91
        1
 92
        3
 72
     0
 73
     1
 93
        3
 10
-351.58241577148436
 20
16.50045708550347
 10
-351.58241577148436
 20
13.694426812065972
 10
-359.99998982747394
 20
15.097269694010416
 97
        0
 75
     0
 76
     1
 98
        1
 10
0.0
 20
0.0
  0
POLYLINE
  5
256
100
AcDbEntity
  8
0
  6
AI9-LTYPE1
 62
     7
100
AcDb2dPolyline
 66
     1
 10
0.0
 20
0.0
 30
0.0
 70
     1
  0
VERTEX
  5
257
100
AcDbEntity
  8
0
  6
AI9-LTYPE1
 62
     7
100
AcDbVertex
100
AcDb2dVertex
 10
351.582588
 20
16.500457
 30
0.0
  0
VERTEX
  5
258
100
AcDbEntity
  8
0
  6
AI9-LTYPE1
 62
     7
100
AcDbVertex
100
AcDb2dVertex
 10
351.582588
 20
13.694427
 30
0.0
  0
VERTEX
  5
259
100
AcDbEntity
  8
0
  6
AI9-LTYPE1
 62
     7
100
AcDbVertex
100
AcDb2dVertex
 10
359.99999
 20
15.09727
 30
0.0
  0
SEQEND
  5
25A
100
AcDbEntity
  8
0
  6
AI9-LTYPE1
 62
     7
  0
HATCH
  5
255
100
AcDbEntity
  8
0
 62
     7
100
AcDbHatch
 10
0.0
 20
0.0
 30
0.0
210
0.0
220
0.0
230
1.0
  2
SOLID
 70
     1
 71
     0
 91
        1
 92
        3
 72
     0
 73
     1
 93
        3
 10
359.99998982747394
 20
15.097269694010416
 10
351.58258802625863
 20
13.694426812065972
 10
351.58258802625863
 20
16.50045708550347
 97
        0
 75
     0
 76
     1
 98
        1
 10
0.0
 20
0.0
  0
MTEXT
  5
254
100
AcDbEntity
  8
0
 62
     7
100
AcDbMText
 10
-27.431314
 20
37.265612
 30
0.0
 40
20.0
 41
0.0
 71
     1
 72
     2
  1
\fTxt|b0|i0;720
  7
STD
210
0.0
220
0.0
230
1.0
 11
1.000001
 21
0.0
 31
0.0
  0
INSERT
  5
250
100
AcDbEntity
  8
0
 62
     7
100
AcDbBlockReference
  2
AI9-BLK56
 10
-359.99999
 20
-44.078963
 30
0.0
  0
INSERT
  5
24B
100
AcDbEntity
  8
0
 62
     7
100
AcDbBlockReference
  2
AI9-BLK55
 10
359.99999
 20
-44.078963
 30
0.0
  0
INSERT
  5
246
100
AcDbEntity
  8
0
  6
AI9-LTYPE1
 62
     7
100
AcDbBlockReference
  2
AI9-BLK54
 10
359.99999
 20
15.097442
 30
0.0
  0
ENDBLK
  5
264
100
AcDbEntity
  8
0
100
AcDbBlockEnd
  0
BLOCK
  5
247
100
AcDbEntity
  8
0
  6
AI9-LTYPE1
 62
     7
100
AcDbBlockBegin
  2
AI9-BLK54
 70
     0
 10
0.0
 20
0.0
 30
0.0
  3
AI9-BLK54
  1

  0
CIRCLE
  5
248
100
AcDbEntity
  8
0
 62
     7
100
AcDbCircle
 10
0.0
 20
-0.000172
 30
0.0
 40
0.035312
  0
ENDBLK
  5
249
100
AcDbEntity
  8
0
100
AcDbBlockEnd
  0
BLOCK
  5
24C
100
AcDbEntity
  8
0
 62
     7
100
AcDbBlockBegin
  2
AI9-BLK55
 70
     0
 10
0.0
 20
0.0
 30
0.0
  3
AI9-BLK55
  1

  0
CIRCLE
  5
24D
100
AcDbEntity
  8
0
 62
     7
100
AcDbCircle
 10
0.0
 20
-0.000172
 30
0.0
 40
0.035312
  0
ENDBLK
  5
24E
100
AcDbEntity
  8
0
100
AcDbBlockEnd
  0
BLOCK
  5
251
100
AcDbEntity
  8
0
 62
     7
100
AcDbBlockBegin
  2
AI9-BLK56
 70
     0
 10
0.0
 20
0.0
 30
0.0
  3
AI9-BLK56
  1

  0
CIRCLE
  5
252
100
AcDbEntity
  8
0
 62
     7
100
AcDbCircle
 10
0.0
 20
-0.000172
 30
0.0
 40
0.035312
  0
ENDBLK
  5
253
100
AcDbEntity
  8
0
100
AcDbBlockEnd
  0
BLOCK
  5
2DD
100
AcDbEntity
  8
0
 62
     7
100
AcDbBlockBegin
  2
AI9-BLK57
 70
     0
 10
0.0
 20
0.0
 30
0.0
  3
AI9-BLK57
  1

  0
POLYLINE
  5
2E4
100
AcDbEntity
  8
0
 62
     7
100
AcDb2dPolyline
 66
     1
 10
0.0
 20
0.0
 30
0.0
  0
VERTEX
  5
2E5
100
AcDbEntity
  8
0
 62
     7
100
AcDbVertex
100
AcDb2dVertex
 10
-22.157821
 20
23.349307
 30
0.0
  0
VERTEX
  5
2E6
100
AcDbEntity
  8
0
 62
     7
100
AcDbVertex
100
AcDb2dVertex
 10
17.947225
 20
-30.081713
 30
0.0
  0
VERTEX
  5
2E7
100
AcDbEntity
  8
0
 62
     7
100
AcDbVertex
100
AcDb2dVertex
 10
27.210398
 20
-30.081713
 30
0.0
  0
SEQEND
  5
2E8
100
AcDbEntity
  8
0
 62
     7
  0
POLYLINE
  5
2DF
100
AcDbEntity
  8
0
 62
     7
100
AcDb2dPolyline
 66
     1
 10
0.0
 20
0.0
 30
0.0
 70
     1
  0
VERTEX
  5
2E0
100
AcDbEntity
  8
0
 62
     7
100
AcDbVertex
100
AcDb2dVertex
 10
-27.210398
 20
30.081713
 30
0.0
  0
VERTEX
  5
2E1
100
AcDbEntity
  8
0
 62
     7
100
AcDbVertex
100
AcDb2dVertex
 10
-21.035409
 20
24.191633
 30
0.0
  0
VERTEX
  5
2E2
100
AcDbEntity
  8
0
 62
     7
100
AcDbVertex
100
AcDb2dVertex
 10
-23.279544
 20
22.507326
 30
0.0
  0
SEQEND
  5
2E3
100
AcDbEntity
  8
0
 62
     7
  0
HATCH
  5
2DE
100
AcDbEntity
  8
0
 62
     7
100
AcDbHatch
 10
0.0
 20
0.0
 30
0.0
210
0.0
220
0.0
230
1.0
  2
SOLID
 70
     1
 71
     0
 91
        1
 92
        3
 72
     0
 73
     1
 93
        3
 10
-27.210397677951388
 20
30.081712510850693
 10
-21.035408528645831
 20
24.191632758246527
 10
-23.279543728298609
 20
22.507325575086803
 97
        0
 75
     0
 76
     1
 98
        1
 10
0.0
 20
0.0
  0
ENDBLK
  5
2E9
100
AcDbEntity
  8
0
100
AcDbBlockEnd
  0
BLOCK
  5
2ED
100
AcDbEntity
  8
0
 62
     7
100
AcDbBlockBegin
  2
AI9-BLK58
 70
     0
 10
0.0
 20
0.0
 30
0.0
  3
AI9-BLK58
  1

  0
LINE
  5
2F4
100
AcDbEntity
  8
0
 62
     7
100
AcDbLine
 10
31.810978
 20
5.242057
 30
0.0
 11
-40.116414
 21
-6.626297
 31
0.0
  0
POLYLINE
  5
2EF
100
AcDbEntity
  8
0
 62
     7
100
AcDb2dPolyline
 66
     1
 10
0.0
 20
0.0
 30
0.0
 70
     1
  0
VERTEX
  5
2F0
100
AcDbEntity
  8
0
 62
     7
100
AcDbVertex
100
AcDb2dVertex
 10
40.116414
 20
6.612516
 30
0.0
  0
VERTEX
  5
2F1
100
AcDbEntity
  8
0
 62
     7
100
AcDbVertex
100
AcDb2dVertex
 10
32.039733
 20
3.857818
 30
0.0
  0
VERTEX
  5
2F2
100
AcDbEntity
  8
0
 62
     7
100
AcDbVertex
100
AcDb2dVertex
 10
31.582913
 20
6.626297
 30
0.0
  0
SEQEND
  5
2F3
100
AcDbEntity
  8
0
 62
     7
  0
HATCH
  5
2EE
100
AcDbEntity
  8
0
 62
     7
100
AcDbHatch
 10
0.0
 20
0.0
 30
0.0
210
0.0
220
0.0
230
1.0
  2
SOLID
 70
     1
 71
     0
 91
        1
 92
        3
 72
     0
 73
     1
 93
        3
 10
40.116414388020829
 20
6.6125162760416663
 10
32.03973253038194
 20
3.8578179253472218
 10
31.582912868923607
 20
6.6262966579861109
 97
        0
 75
     0
 76
     1
 98
        1
 10
0.0
 20
0.0
  0
ENDBLK
  5
2F5
100
AcDbEntity
  8
0
100
AcDbBlockEnd
  0
BLOCK
  5
305
100
AcDbEntity
  8
0
 62
     7
100
AcDbBlockBegin
  2
AI9-BLK59
 70
     0
 10
0.0
 20
0.0
 30
0.0
  3
AI9-BLK59
  1

  0
LINE
  5
30C
100
AcDbEntity
  8
0
 62
     7
100
AcDbLine
 10
126.659625
 20
-37.357582
 30
0.0
 11
-134.73355
 21
39.738832
 31
0.0
  0
POLYLINE
  5
307
100
AcDbEntity
  8
0
 62
     7
100
AcDb2dPolyline
 66
     1
 10
0.0
 20
0.0
 30
0.0
 70
     1
  0
VERTEX
  5
308
100
AcDbEntity
  8
0
 62
     7
100
AcDbVertex
100
AcDb2dVertex
 10
134.73355
 20
-39.738832
 30
0.0
  0
VERTEX
  5
309
100
AcDbEntity
  8
0
 62
     7
100
AcDbVertex
100
AcDb2dVertex
 10
126.26275
 20
-38.703236
 30
0.0
  0
VERTEX
  5
30A
100
AcDbEntity
  8
0
 62
     7
100
AcDbVertex
100
AcDb2dVertex
 10
127.0565
 20
-36.011928
 30
0.0
  0
SEQEND
  5
30B
100
AcDbEntity
  8
0
 62
     7
  0
HATCH
  5
306
100
AcDbEntity
  8
0
 62
     7
100
AcDbHatch
 10
0.0
 20
0.0
 30
0.0
210
0.0
220
0.0
230
1.0
  2
SOLID
 70
     1
 71
     0
 91
        1
 92
        3
 72
     0
 73
     1
 93
        3
 10
134.73355034722221
 20
-39.738831922743053
 10
126.26274956597221
 20
-38.703236219618049
 10
127.05649956597222
 20
-36.011927625868054
 97
        0
 75
     0
 76
     1
 98
        1
 10
0.0
 20
0.0
  0
ENDBLK
  5
30D
100
AcDbEntity
  8
0
100
AcDbBlockEnd
  0
BLOCK
  5
311
100
AcDbEntity
  8
0
 62
     7
100
AcDbBlockBegin
  2
AI9-BLK60
 70
     0
 10
0.0
 20
0.0
 30
0.0
  3
AI9-BLK60
  1

  0
LINE
  5
318
100
AcDbEntity
  8
0
 62
     7
100
AcDbLine
 10
107.632276
 20
31.422544
 30
0.0
 11
-115.712403
 21
-33.781401
 31
0.0
  0
POLYLINE
  5
313
100
AcDbEntity
  8
0
 62
     7
100
AcDb2dPolyline
 66
     1
 10
0.0
 20
0.0
 30
0.0
 70
     1
  0
VERTEX
  5
314
100
AcDbEntity
  8
0
 62
     7
100
AcDbVertex
100
AcDb2dVertex
 10
115.712403
 20
33.781401
 30
0.0
  0
VERTEX
  5
315
100
AcDbEntity
  8
0
 62
     7
100
AcDbVertex
100
AcDb2dVertex
 10
108.025361
 20
30.075856
 30
0.0
  0
VERTEX
  5
316
100
AcDbEntity
  8
0
 62
     7
100
AcDbVertex
100
AcDb2dVertex
 10
107.239191
 20
32.769231
 30
0.0
  0
SEQEND
  5
317
100
AcDbEntity
  8
0
 62
     7
  0
HATCH
  5
312
100
AcDbEntity
  8
0
 62
     7
100
AcDbHatch
 10
0.0
 20
0.0
 30
0.0
210
0.0
220
0.0
230
1.0
  2
SOLID
 70
     1
 71
     0
 91
        1
 92
        3
 72
     0
 73
     1
 93
        3
 10
115.71240302191839
 20
33.781400553385417
 10
108.02536146375867
 20
30.075855848524302
 10
107.23919067382812
 20
32.769231499565969
 97
        0
 75
     0
 76
     1
 98
        1
 10
0.0
 20
0.0
  0
ENDBLK
  5
319
100
AcDbEntity
  8
0
100
AcDbBlockEnd
  0
BLOCK
  5
31D
100
AcDbEntity
  8
0
 62
     7
100
AcDbBlockBegin
  2
AI9-BLK61
 70
     0
 10
0.0
 20
0.0
 30
0.0
  3
AI9-BLK61
  1

  0
LINE
  5
324
100
AcDbEntity
  8
0
 62
     7
100
AcDbLine
 10
113.578769
 20
21.306882
 30
0.0
 11
-121.851822
 21
-22.858898
 31
0.0
  0
POLYLINE
  5
31F
100
AcDbEntity
  8
0
 62
     7
100
AcDb2dPolyline
 66
     1
 10
0.0
 20
0.0
 30
0.0
 70
     1
  0
VERTEX
  5
320
100
AcDbEntity
  8
0
 62
     7
100
AcDbVertex
100
AcDb2dVertex
 10
121.851822
 20
22.858898
 30
0.0
  0
VERTEX
  5
321
100
AcDbEntity
  8
0
 62
     7
100
AcDbVertex
100
AcDb2dVertex
 10
113.837496
 20
19.928155
 30
0.0
  0
VERTEX
  5
322
100
AcDbEntity
  8
0
 62
     7
100
AcDbVertex
100
AcDb2dVertex
 10
113.320043
 20
22.685954
 30
0.0
  0
SEQEND
  5
323
100
AcDbEntity
  8
0
 62
     7
  0
HATCH
  5
31E
100
AcDbEntity
  8
0
 62
     7
100
AcDbHatch
 10
0.0
 20
0.0
 30
0.0
210
0.0
220
0.0
230
1.0
  2
SOLID
 70
     1
 71
     0
 91
        1
 92
        3
 72
     0
 73
     1
 93
        3
 10
121.85182156032985
 20
22.858897569444441
 10
113.83749593098958
 20
19.928154839409721
 10
113.32004258897568
 20
22.685953776041664
 97
        0
 75
     0
 76
     1
 98
        1
 10
0.0
 20
0.0
  0
ENDBLK
  5
325
100
AcDbEntity
  8
0
100
AcDbBlockEnd
  0
BLOCK
  5
329
100
AcDbEntity
  8
0
 62
     7
100
AcDbBlockBegin
  2
AI9-BLK62
 70
     0
 10
0.0
 20
0.0
 30
0.0
  3
AI9-BLK62
  1

  0
LINE
  5
330
100
AcDbEntity
  8
0
 62
     7
100
AcDbLine
 10
28.884628
 20
30.725601
 30
0.0
 11
-34.650168
 21
-36.858904
 31
0.0
  0
POLYLINE
  5
32B
100
AcDbEntity
  8
0
 62
     7
100
AcDb2dPolyline
 66
     1
 10
0.0
 20
0.0
 30
0.0
 70
     1
  0
VERTEX
  5
32C
100
AcDbEntity
  8
0
 62
     7
100
AcDbVertex
100
AcDb2dVertex
 10
34.650168
 20
36.858904
 30
0.0
  0
VERTEX
  5
32D
100
AcDbEntity
  8
0
 62
     7
100
AcDbVertex
100
AcDb2dVertex
 10
29.906788
 20
29.764764
 30
0.0
  0
VERTEX
  5
32E
100
AcDbEntity
  8
0
 62
     7
100
AcDbVertex
100
AcDb2dVertex
 10
27.862468
 20
31.686782
 30
0.0
  0
SEQEND
  5
32F
100
AcDbEntity
  8
0
 62
     7
  0
HATCH
  5
32A
100
AcDbEntity
  8
0
 62
     7
100
AcDbHatch
 10
0.0
 20
0.0
 30
0.0
210
0.0
220
0.0
230
1.0
  2
SOLID
 70
     1
 71
     0
 91
        1
 92
        3
 72
     0
 73
     1
 93
        3
 10
34.650167507595484
 20
36.858904351128466
 10
29.906787787543401
 20
29.764763726128468
 10
27.862468126085066
 20
31.68678249782986
 97
        0
 75
     0
 76
     1
 98
        1
 10
0.0
 20
0.0
  0
ENDBLK
  5
331
100
AcDbEntity
  8
0
100
AcDbBlockEnd
  0
BLOCK
  5
335
100
AcDbEntity
  8
0
 62
     7
100
AcDbBlockBegin
  2
AI9-BLK63
 70
     0
 10
0.0
 20
0.0
 30
0.0
  3
AI9-BLK63
  1

  0
LINE
  5
33C
100
AcDbEntity
  8
0
 62
     7
100
AcDbLine
 10
15.164018
 20
43.669341
 30
0.0
 11
-17.925262
 21
-51.621311
 31
0.0
  0
POLYLINE
  5
337
100
AcDbEntity
  8
0
 62
     7
100
AcDb2dPolyline
 66
     1
 10
0.0
 20
0.0
 30
0.0
 70
     1
  0
VERTEX
  5
338
100
AcDbEntity
  8
0
 62
     7
100
AcDbVertex
100
AcDb2dVertex
 10
17.925262
 20
51.621311
 30
0.0
  0
VERTEX
  5
339
100
AcDbEntity
  8
0
 62
     7
100
AcDbVertex
100
AcDb2dVertex
 10
16.489347
 20
43.209077
 30
0.0
  0
VERTEX
  5
33A
100
AcDbEntity
  8
0
 62
     7
100
AcDbVertex
100
AcDb2dVertex
 10
13.838862
 20
44.129606
 30
0.0
  0
SEQEND
  5
33B
100
AcDbEntity
  8
0
 62
     7
  0
HATCH
  5
336
100
AcDbEntity
  8
0
 62
     7
100
AcDbHatch
 10
0.0
 20
0.0
 30
0.0
210
0.0
220
0.0
230
1.0
  2
SOLID
 70
     1
 71
     0
 91
        1
 92
        3
 72
     0
 73
     1
 93
        3
 10
17.925262451171875
 20
51.621310763888886
 10
16.489346652560762
 20
43.209076605902773
 10
13.838862440321179
 20
44.12960611979166
 97
        0
 75
     0
 76
     1
 98
        1
 10
0.0
 20
0.0
  0
ENDBLK
  5
33D
100
AcDbEntity
  8
0
100
AcDbBlockEnd
  0
BLOCK
  5
340
100
AcDbEntity
  8
0
 62
     7
100
AcDbBlockBegin
  2
AI9-BLK64
 70
     0
 10
0.0
 20
0.0
 30
0.0
  3
AI9-BLK64
  1

  0
LINE
  5
35F
100
AcDbEntity
  8
0
  6
AI9-LTYPE1
 62
     7
100
AcDbLine
 10
-55.875487
 20
299.999948
 30
0.0
 11
56.928997
 21
299.999948
 31
0.0
  0
LINE
  5
35E
100
AcDbEntity
  8
0
  6
AI9-LTYPE1
 62
     7
100
AcDbLine
 10
-54.379454
 20
-299.999948
 30
0.0
 11
56.928997
 21
-299.999948
 31
0.0
  0
LINE
  5
35D
100
AcDbEntity
  8
0
  6
AI9-LTYPE1
 62
     7
100
AcDbLine
 10
52.720296
 20
291.582547
 30
0.0
 11
52.720296
 21
-291.582547
 31
0.0
  0
POLYLINE
  5
358
100
AcDbEntity
  8
0
  6
AI9-LTYPE1
 62
     7
100
AcDb2dPolyline
 66
     1
 10
0.0
 20
0.0
 30
0.0
 70
     1
  0
VERTEX
  5
359
100
AcDbEntity
  8
0
  6
AI9-LTYPE1
 62
     7
100
AcDbVertex
100
AcDb2dVertex
 10
51.317281
 20
291.582547
 30
0.0
  0
VERTEX
  5
35A
100
AcDbEntity
  8
0
  6
AI9-LTYPE1
 62
     7
100
AcDbVertex
100
AcDb2dVertex
 10
54.123311
 20
291.582547
 30
0.0
  0
VERTEX
  5
35B
100
AcDbEntity
  8
0
  6
AI9-LTYPE1
 62
     7
100
AcDbVertex
100
AcDb2dVertex
 10
52.720296
 20
299.999948
 30
0.0
  0
SEQEND
  5
35C
100
AcDbEntity
  8
0
  6
AI9-LTYPE1
 62
     7
  0
HATCH
  5
357
100
AcDbEntity
  8
0
 62
     7
100
AcDbHatch
 10
0.0
 20
0.0
 30
0.0
210
0.0
220
0.0
230
1.0
  2
SOLID
 70
     1
 71
     0
 91
        1
 92
        3
 72
     0
 73
     1
 93
        3
 10
52.720296223958329
 20
299.99994845920133
 10
54.123311360677079
 20
291.58254665798609
 10
51.317281087239579
 20
291.58254665798609
 97
        0
 75
     0
 76
     1
 98
        1
 10
0.0
 20
0.0
  0
POLYLINE
  5
352
100
AcDbEntity
  8
0
  6
AI9-LTYPE1
 62
     7
100
AcDb2dPolyline
 66
     1
 10
0.0
 20
0.0
 30
0.0
 70
     1
  0
VERTEX
  5
353
100
AcDbEntity
  8
0
  6
AI9-LTYPE1
 62
     7
100
AcDbVertex
100
AcDb2dVertex
 10
51.317281
 20
-291.582547
 30
0.0
  0
VERTEX
  5
354
100
AcDbEntity
  8
0
  6
AI9-LTYPE1
 62
     7
100
AcDbVertex
100
AcDb2dVertex
 10
54.123311
 20
-291.582547
 30
0.0
  0
VERTEX
  5
355
100
AcDbEntity
  8
0
  6
AI9-LTYPE1
 62
     7
100
AcDbVertex
100
AcDb2dVertex
 10
52.720296
 20
-299.999948
 30
0.0
  0
SEQEND
  5
356
100
AcDbEntity
  8
0
  6
AI9-LTYPE1
 62
     7
  0
HATCH
  5
351
100
AcDbEntity
  8
0
 62
     7
100
AcDbHatch
 10
0.0
 20
0.0
 30
0.0
210
0.0
220
0.0
230
1.0
  2
SOLID
 70
     1
 71
     0
 91
        1
 92
        3
 72
     0
 73
     1
 93
        3
 10
51.317281087239579
 20
-291.58254665798609
 10
54.123311360677079
 20
-291.58254665798609
 10
52.720296223958329
 20
-299.99994845920133
 97
        0
 75
     0
 76
     1
 98
        1
 10
0.0
 20
0.0
  0
MTEXT
  5
350
100
AcDbEntity
  8
0
 62
     7
100
AcDbMText
 10
30.551781
 20
-25.823403
 30
0.0
 40
20.0
 41
0.0
 71
     1
 72
     2
  1
\fTxt|b0|i0;600
  7
STD
210
0.0
220
0.0
230
1.0
 11
0.0
 21
1.0
 31
0.0
  0
INSERT
  5
34C
100
AcDbEntity
  8
0
 62
     7
100
AcDbBlockReference
  2
AI9-BLK67
 10
-57.979837
 20
300.000121
 30
0.0
  0
INSERT
  5
347
100
AcDbEntity
  8
0
 62
     7
100
AcDbBlockReference
  2
AI9-BLK66
 10
-56.483805
 20
-300.000121
 30
0.0
  0
INSERT
  5
342
100
AcDbEntity
  8
0
 62
     7
100
AcDbBlockReference
  2
AI9-BLK65
 10
52.720296
 20
-300.000121
 30
0.0
  0
ENDBLK
  5
360
100
AcDbEntity
  8
0
100
AcDbBlockEnd
  0
BLOCK
  5
343
100
AcDbEntity
  8
0
 62
     7
100
AcDbBlockBegin
  2
AI9-BLK65
 70
     0
 10
0.0
 20
0.0
 30
0.0
  3
AI9-BLK65
  1

  0
CIRCLE
  5
344
100
AcDbEntity
  8
0
 62
     7
100
AcDbCircle
 10
0.0
 20
0.000172
 30
0.0
 40
0.035312
  0
ENDBLK
  5
345
100
AcDbEntity
  8
0
100
AcDbBlockEnd
  0
BLOCK
  5
348
100
AcDbEntity
  8
0
 62
     7
100
AcDbBlockBegin
  2
AI9-BLK66
 70
     0
 10
0.0
 20
0.0
 30
0.0
  3
AI9-BLK66
  1

  0
CIRCLE
  5
349
100
AcDbEntity
  8
0
 62
     7
100
AcDbCircle
 10
0.0
 20
0.000172
 30
0.0
 40
0.035226
  0
ENDBLK
  5
34A
100
AcDbEntity
  8
0
100
AcDbBlockEnd
  0
BLOCK
  5
34D
100
AcDbEntity
  8
0
 62
     7
100
AcDbBlockBegin
  2
AI9-BLK67
 70
     0
 10
0.0
 20
0.0
 30
0.0
  3
AI9-BLK67
  1

  0
CIRCLE
  5
34E
100
AcDbEntity
  8
0
 62
     7
100
AcDbCircle
 10
0.0
 20
-0.000172
 30
0.0
 40
0.035226
  0
ENDBLK
  5
34F
100
AcDbEntity
  8
0
100
AcDbBlockEnd
  0
BLOCK
  5
373
100
AcDbEntity
  8
0
 62
     7
100
AcDbBlockBegin
  2
AI9-BLK68
 70
     0
 10
0.0
 20
0.0
 30
0.0
  3
AI9-BLK68
  1

  0
LINE
  5
37D
100
AcDbEntity
  8
0
 62
     7
100
AcDbLine
 10
-47.500029
 20
9.195993
 30
0.0
 11
5.000125
 21
9.195993
 31
0.0
  0
LINE
  5
37C
100
AcDbEntity
  8
0
 62
     7
100
AcDbLine
 10
-47.500029
 20
5.196238
 30
0.0
 11
5.000125
 21
5.196238
 31
0.0
  0
LINE
  5
37B
100
AcDbEntity
  8
0
 62
     7
100
AcDbLine
 10
-47.500029
 20
9.195993
 30
0.0
 11
-47.500029
 21
5.196238
 31
0.0
  0
LINE
  5
37A
100
AcDbEntity
  8
0
 62
     7
100
AcDbLine
 10
17.000082
 20
5.196238
 30
0.0
 11
47.500029
 21
5.196238
 31
0.0
  0
LINE
  5
379
100
AcDbEntity
  8
0
 62
     7
100
AcDbLine
 10
17.000082
 20
1.196137
 30
0.0
 11
47.500029
 21
1.196137
 31
0.0
  0
LINE
  5
378
100
AcDbEntity
  8
0
 62
     7
100
AcDbLine
 10
5.000125
 20
9.195993
 30
0.0
 11
17.000082
 21
5.196238
 31
0.0
  0
LINE
  5
377
100
AcDbEntity
  8
0
 62
     7
100
AcDbLine
 10
5.000125
 20
5.196238
 30
0.0
 11
17.000082
 21
1.196137
 31
0.0
  0
LINE
  5
376
100
AcDbEntity
  8
0
 62
     7
100
AcDbLine
 10
42.49999
 20
5.196238
 30
0.0
 11
42.49999
 21
1.196137
 31
0.0
  0
LINE
  5
375
100
AcDbEntity
  8
0
 62
     7
100
AcDbLine
 10
37.500123
 20
5.196238
 30
0.0
 11
37.500123
 21
-9.195993
 31
0.0
  0
LINE
  5
374
100
AcDbEntity
  8
0
 62
     7
100
AcDbLine
 10
47.500029
 20
5.196238
 30
0.0
 11
47.500029
 21
-9.195993
 31
0.0
  0
ENDBLK
  5
37E
100
AcDbEntity
  8
0
100
AcDbBlockEnd
  0
BLOCK
  5
381
100
AcDbEntity
  8
0
 62
     7
100
AcDbBlockBegin
  2
AI9-BLK69
 70
     0
 10
0.0
 20
0.0
 30
0.0
  3
AI9-BLK69
  1

  0
LINE
  5
38B
100
AcDbEntity
  8
0
 62
     7
100
AcDbLine
 10
-47.500029
 20
9.196338
 30
0.0
 11
4.999953
 21
9.196338
 31
0.0
  0
LINE
  5
38A
100
AcDbEntity
  8
0
 62
     7
100
AcDbLine
 10
-47.500029
 20
5.195893
 30
0.0
 11
4.999953
 21
5.195893
 31
0.0
  0
LINE
  5
389
100
AcDbEntity
  8
0
 62
     7
100
AcDbLine
 10
-47.500029
 20
9.196338
 30
0.0
 11
-47.500029
 21
5.195893
 31
0.0
  0
LINE
  5
388
100
AcDbEntity
  8
0
 62
     7
100
AcDbLine
 10
16.99991
 20
5.195893
 30
0.0
 11
47.500029
 21
5.195893
 31
0.0
  0
LINE
  5
387
100
AcDbEntity
  8
0
 62
     7
100
AcDbLine
 10
16.99991
 20
1.196137
 30
0.0
 11
47.500029
 21
1.196137
 31
0.0
  0
LINE
  5
386
100
AcDbEntity
  8
0
 62
     7
100
AcDbLine
 10
4.999953
 20
9.196338
 30
0.0
 11
16.99991
 21
5.195893
 31
0.0
  0
LINE
  5
385
100
AcDbEntity
  8
0
 62
     7
100
AcDbLine
 10
4.999953
 20
5.195893
 30
0.0
 11
16.99991
 21
1.196137
 31
0.0
  0
LINE
  5
384
100
AcDbEntity
  8
0
 62
     7
100
AcDbLine
 10
42.499818
 20
5.195893
 30
0.0
 11
42.499818
 21
1.196137
 31
0.0
  0
LINE
  5
383
100
AcDbEntity
  8
0
 62
     7
100
AcDbLine
 10
37.49995
 20
5.195893
 30
0.0
 11
37.49995
 21
-9.196338
 31
0.0
  0
LINE
  5
382
100
AcDbEntity
  8
0
 62
     7
100
AcDbLine
 10
47.500029
 20
5.195893
 30
0.0
 11
47.500029
 21
-9.196338
 31
0.0
  0
ENDBLK
  5
38C
100
AcDbEntity
  8
0
100
AcDbBlockEnd
  0
BLOCK
  5
38F
100
AcDbEntity
  8
0
 62
     7
100
AcDbBlockBegin
  2
AI9-BLK70
 70
     0
 10
0.0
 20
0.0
 30
0.0
  3
AI9-BLK70
  1

  0
LINE
  5
3AC
100
AcDbEntity
  8
0
  6
AI9-LTYPE2
 62
     7
100
AcDbLine
 10
-63.750114
 20
32.999881
 30
0.0
 11
-11.249615
 21
32.999881
 31
0.0
  0
LINE
  5
3AB
100
AcDbEntity
  8
0
  6
AI9-LTYPE2
 62
     7
100
AcDbLine
 10
-63.750114
 20
29.000125
 30
0.0
 11
-11.249615
 21
29.000125
 31
0.0
  0
LINE
  5
3AA
100
AcDbEntity
  8
0
  6
AI9-LTYPE2
 62
     7
100
AcDbLine
 10
-63.750114
 20
32.999881
 30
0.0
 11
-63.750114
 21
29.000125
 31
0.0
  0
LINE
  5
3A9
100
AcDbEntity
  8
0
  6
AI9-LTYPE2
 62
     7
100
AcDbLine
 10
26.25025
 20
14.999946
 30
0.0
 11
26.25025
 21
-32.999881
 31
0.0
  0
LINE
  5
3A8
100
AcDbEntity
  8
0
  6
AI9-LTYPE2
 62
     7
100
AcDbLine
 10
51.750157
 20
14.999946
 30
0.0
 11
51.750157
 21
-32.999881
 31
0.0
  0
LINE
  5
3A7
100
AcDbEntity
  8
0
  6
AI9-LTYPE2
 62
     7
100
AcDbLine
 10
0.750342
 20
14.999946
 30
0.0
 11
0.750342
 21
-32.999881
 31
0.0
  0
LINE
  5
3A6
100
AcDbEntity
  8
0
  6
AI9-LTYPE2
 62
     7
100
AcDbLine
 10
-11.249615
 20
14.999946
 30
0.0
 11
-11.249615
 21
-32.999881
 31
0.0
  0
LINE
  5
3A5
100
AcDbEntity
  8
0
  6
AI9-LTYPE2
 62
     7
100
AcDbLine
 10
63.750114
 20
14.999946
 30
0.0
 11
63.750114
 21
-32.999881
 31
0.0
  0
LINE
  5
3A4
100
AcDbEntity
  8
0
  6
AI9-LTYPE2
 62
     7
100
AcDbLine
 10
0.750342
 20
-31.000003
 30
0.0
 11
26.25025
 21
-32.999881
 31
0.0
  0
LINE
  5
3A3
100
AcDbEntity
  8
0
  6
AI9-LTYPE2
 62
     7
100
AcDbLine
 10
-11.249615
 20
-32.999881
 30
0.0
 11
0.750342
 21
-32.999881
 31
0.0
  0
LINE
  5
3A2
100
AcDbEntity
  8
0
  6
AI9-LTYPE2
 62
     7
100
AcDbLine
 10
-11.249615
 20
-20.999924
 30
0.0
 11
0.750342
 21
-20.999924
 31
0.0
  0
LINE
  5
3A1
100
AcDbEntity
  8
0
  6
AI9-LTYPE2
 62
     7
100
AcDbLine
 10
21.250038
 20
-32.607829
 30
0.0
 11
21.250038
 21
-32.999881
 31
0.0
  0
LINE
  5
3A0
100
AcDbEntity
  8
0
  6
AI9-LTYPE2
 62
     7
100
AcDbLine
 10
26.25025
 20
-32.999881
 30
0.0
 11
51.750157
 21
-31.000003
 31
0.0
  0
LINE
  5
39F
100
AcDbEntity
  8
0
  6
AI9-LTYPE2
 62
     7
100
AcDbLine
 10
31.250461
 20
-32.607829
 30
0.0
 11
31.250461
 21
-32.999881
 31
0.0
  0
LINE
  5
39E
100
AcDbEntity
  8
0
  6
AI9-LTYPE2
 62
     7
100
AcDbLine
 10
51.750157
 20
-32.999881
 30
0.0
 11
63.750114
 21
-32.999881
 31
0.0
  0
LINE
  5
39D
100
AcDbEntity
  8
0
  6
AI9-LTYPE2
 62
     7
100
AcDbLine
 10
51.750157
 20
-20.999924
 30
0.0
 11
63.750114
 21
-20.999924
 31
0.0
  0
LINE
  5
39C
100
AcDbEntity
  8
0
  6
AI9-LTYPE2
 62
     7
100
AcDbLine
 10
31.250461
 20
29.000125
 30
0.0
 11
31.250461
 21
14.607894
 31
0.0
  0
LINE
  5
39B
100
AcDbEntity
  8
0
  6
AI9-LTYPE2
 62
     7
100
AcDbLine
 10
21.250038
 20
29.000125
 30
0.0
 11
21.250038
 21
14.607894
 31
0.0
  0
LINE
  5
39A
100
AcDbEntity
  8
0
  6
AI9-LTYPE2
 62
     7
100
AcDbLine
 10
0.750342
 20
13.000068
 30
0.0
 11
26.25025
 21
14.999946
 31
0.0
  0
LINE
  5
399
100
AcDbEntity
  8
0
  6
AI9-LTYPE2
 62
     7
100
AcDbLine
 10
-11.249615
 20
2.999989
 30
0.0
 11
0.750342
 21
2.999989
 31
0.0
  0
LINE
  5
398
100
AcDbEntity
  8
0
  6
AI9-LTYPE2
 62
     7
100
AcDbLine
 10
-11.249615
 20
14.999946
 30
0.0
 11
0.750342
 21
14.999946
 31
0.0
  0
LINE
  5
397
100
AcDbEntity
  8
0
  6
AI9-LTYPE2
 62
     7
100
AcDbLine
 10
26.25025
 20
14.999946
 30
0.0
 11
51.750157
 21
13.000068
 31
0.0
  0
LINE
  5
396
100
AcDbEntity
  8
0
  6
AI9-LTYPE2
 62
     7
100
AcDbLine
 10
51.750157
 20
2.999989
 30
0.0
 11
63.750114
 21
2.999989
 31
0.0
  0
LINE
  5
395
100
AcDbEntity
  8
0
  6
AI9-LTYPE2
 62
     7
100
AcDbLine
 10
51.750157
 20
14.999946
 30
0.0
 11
63.750114
 21
14.999946
 31
0.0
  0
LINE
  5
394
100
AcDbEntity
  8
0
  6
AI9-LTYPE2
 62
     7
100
AcDbLine
 10
0.750342
 20
29.000125
 30
0.0
 11
31.250461
 21
29.000125
 31
0.0
  0
LINE
  5
393
100
AcDbEntity
  8
0
  6
AI9-LTYPE2
 62
     7
100
AcDbLine
 10
0.750342
 20
25.000024
 30
0.0
 11
31.250461
 21
25.000024
 31
0.0
  0
LINE
  5
392
100
AcDbEntity
  8
0
  6
AI9-LTYPE2
 62
     7
100
AcDbLine
 10
-11.249615
 20
32.999881
 30
0.0
 11
0.750342
 21
29.000125
 31
0.0
  0
LINE
  5
391
100
AcDbEntity
  8
0
  6
AI9-LTYPE2
 62
     7
100
AcDbLine
 10
-11.249615
 20
29.000125
 30
0.0
 11
0.750342
 21
25.000024
 31
0.0
  0
LINE
  5
390
100
AcDbEntity
  8
0
  6
AI9-LTYPE2
 62
     7
100
AcDbLine
 10
26.25025
 20
29.000125
 30
0.0
 11
26.25025
 21
25.000024
 31
0.0
  0
ENDBLK
  5
3AD
100
AcDbEntity
  8
0
100
AcDbBlockEnd
  0
BLOCK
  5
3B0
100
AcDbEntity
  8
0
  6
AI9-LTYPE2
 62
     7
100
AcDbBlockBegin
  2
AI9-BLK71
 70
     0
 10
0.0
 20
0.0
 30
0.0
  3
AI9-BLK71
  1

  0
LINE
  5
3CD
100
AcDbEntity
  8
0
  6
AI9-LTYPE2
 62
     7
100
AcDbLine
 10
-63.750114
 20
33.000053
 30
0.0
 11
-11.249615
 21
33.000053
 31
0.0
  0
LINE
  5
3CC
100
AcDbEntity
  8
0
  6
AI9-LTYPE2
 62
     7
100
AcDbLine
 10
-63.750114
 20
28.999953
 30
0.0
 11
-11.249615
 21
28.999953
 31
0.0
  0
LINE
  5
3CB
100
AcDbEntity
  8
0
  6
AI9-LTYPE2
 62
     7
100
AcDbLine
 10
-63.750114
 20
33.000053
 30
0.0
 11
-63.750114
 21
28.999953
 31
0.0
  0
LINE
  5
3CA
100
AcDbEntity
  8
0
  6
AI9-LTYPE2
 62
     7
100
AcDbLine
 10
26.25025
 20
14.999773
 30
0.0
 11
26.25025
 21
-33.000053
 31
0.0
  0
LINE
  5
3C9
100
AcDbEntity
  8
0
  6
AI9-LTYPE2
 62
     7
100
AcDbLine
 10
51.750157
 20
14.999773
 30
0.0
 11
51.750157
 21
-33.000053
 31
0.0
  0
LINE
  5
3C8
100
AcDbEntity
  8
0
  6
AI9-LTYPE2
 62
     7
100
AcDbLine
 10
0.750342
 20
14.999773
 30
0.0
 11
0.750342
 21
-33.000053
 31
0.0
  0
LINE
  5
3C7
100
AcDbEntity
  8
0
  6
AI9-LTYPE2
 62
     7
100
AcDbLine
 10
-11.249615
 20
14.999773
 30
0.0
 11
-11.249615
 21
-33.000053
 31
0.0
  0
LINE
  5
3C6
100
AcDbEntity
  8
0
  6
AI9-LTYPE2
 62
     7
100
AcDbLine
 10
63.750114
 20
14.999773
 30
0.0
 11
63.750114
 21
-33.000053
 31
0.0
  0
LINE
  5
3C5
100
AcDbEntity
  8
0
  6
AI9-LTYPE2
 62
     7
100
AcDbLine
 10
0.750342
 20
-31.000175
 30
0.0
 11
26.25025
 21
-33.000053
 31
0.0
  0
LINE
  5
3C4
100
AcDbEntity
  8
0
  6
AI9-LTYPE2
 62
     7
100
AcDbLine
 10
-11.249615
 20
-33.000053
 30
0.0
 11
0.750342
 21
-33.000053
 31
0.0
  0
LINE
  5
3C3
100
AcDbEntity
  8
0
  6
AI9-LTYPE2
 62
     7
100
AcDbLine
 10
-11.249615
 20
-21.000096
 30
0.0
 11
0.750342
 21
-21.000096
 31
0.0
  0
LINE
  5
3C2
100
AcDbEntity
  8
0
  6
AI9-LTYPE2
 62
     7
100
AcDbLine
 10
21.250038
 20
-32.608001
 30
0.0
 11
21.250038
 21
-33.000053
 31
0.0
  0
LINE
  5
3C1
100
AcDbEntity
  8
0
  6
AI9-LTYPE2
 62
     7
100
AcDbLine
 10
26.25025
 20
-33.000053
 30
0.0
 11
51.750157
 21
-31.000175
 31
0.0
  0
LINE
  5
3C0
100
AcDbEntity
  8
0
  6
AI9-LTYPE2
 62
     7
100
AcDbLine
 10
31.249772
 20
-32.608001
 30
0.0
 11
31.249772
 21
-33.000053
 31
0.0
  0
LINE
  5
3BF
100
AcDbEntity
  8
0
  6
AI9-LTYPE2
 62
     7
100
AcDbLine
 10
51.750157
 20
-33.000053
 30
0.0
 11
63.750114
 21
-33.000053
 31
0.0
  0
LINE
  5
3BE
100
AcDbEntity
  8
0
  6
AI9-LTYPE2
 62
     7
100
AcDbLine
 10
51.750157
 20
-21.000096
 30
0.0
 11
63.750114
 21
-21.000096
 31
0.0
  0
LINE
  5
3BD
100
AcDbEntity
  8
0
  6
AI9-LTYPE2
 62
     7
100
AcDbLine
 10
31.249772
 20
28.999953
 30
0.0
 11
31.249772
 21
14.607722
 31
0.0
  0
LINE
  5
3BC
100
AcDbEntity
  8
0
  6
AI9-LTYPE2
 62
     7
100
AcDbLine
 10
21.250038
 20
28.999953
 30
0.0
 11
21.250038
 21
14.607722
 31
0.0
  0
LINE
  5
3BB
100
AcDbEntity
  8
0
  6
AI9-LTYPE2
 62
     7
100
AcDbLine
 10
0.750342
 20
12.999896
 30
0.0
 11
26.25025
 21
14.999773
 31
0.0
  0
LINE
  5
3BA
100
AcDbEntity
  8
0
  6
AI9-LTYPE2
 62
     7
100
AcDbLine
 10
-11.249615
 20
2.999817
 30
0.0
 11
0.750342
 21
2.999817
 31
0.0
  0
LINE
  5
3B9
100
AcDbEntity
  8
0
  6
AI9-LTYPE2
 62
     7
100
AcDbLine
 10
-11.249615
 20
14.999773
 30
0.0
 11
0.750342
 21
14.999773
 31
0.0
  0
LINE
  5
3B8
100
AcDbEntity
  8
0
  6
AI9-LTYPE2
 62
     7
100
AcDbLine
 10
26.25025
 20
14.999773
 30
0.0
 11
51.750157
 21
12.999896
 31
0.0
  0
LINE
  5
3B7
100
AcDbEntity
  8
0
  6
AI9-LTYPE2
 62
     7
100
AcDbLine
 10
51.750157
 20
2.999817
 30
0.0
 11
63.750114
 21
2.999817
 31
0.0
  0
LINE
  5
3B6
100
AcDbEntity
  8
0
  6
AI9-LTYPE2
 62
     7
100
AcDbLine
 10
51.750157
 20
14.999773
 30
0.0
 11
63.750114
 21
14.999773
 31
0.0
  0
LINE
  5
3B5
100
AcDbEntity
  8
0
  6
AI9-LTYPE2
 62
     7
100
AcDbLine
 10
0.750342
 20
28.999953
 30
0.0
 11
31.249772
 21
28.999953
 31
0.0
  0
LINE
  5
3B4
100
AcDbEntity
  8
0
  6
AI9-LTYPE2
 62
     7
100
AcDbLine
 10
0.750342
 20
24.999852
 30
0.0
 11
31.249772
 21
24.999852
 31
0.0
  0
LINE
  5
3B3
100
AcDbEntity
  8
0
  6
AI9-LTYPE2
 62
     7
100
AcDbLine
 10
-11.249615
 20
33.000053
 30
0.0
 11
0.750342
 21
28.999953
 31
0.0
  0
LINE
  5
3B2
100
AcDbEntity
  8
0
  6
AI9-LTYPE2
 62
     7
100
AcDbLine
 10
-11.249615
 20
28.999953
 30
0.0
 11
0.750342
 21
24.999852
 31
0.0
  0
LINE
  5
3B1
100
AcDbEntity
  8
0
  6
AI9-LTYPE2
 62
     7
100
AcDbLine
 10
26.25025
 20
28.999953
 30
0.0
 11
26.25025
 21
24.999852
 31
0.0
  0
ENDBLK
  5
3CE
100
AcDbEntity
  8
0
100
AcDbBlockEnd
  0
ENDSEC
  0
SECTION
  2
ENTITIES
  0
LINE
  5
468
100
AcDbEntity
  8
0
 62
     7
100
AcDbLine
 10
-913.529769
 20
1076.053526
 30
0.0
 11
-913.529769
 21
476.05363
 31
0.0
  0
LINE
  5
467
100
AcDbEntity
  8
0
 62
     7
100
AcDbLine
 10
-913.529769
 20
76.632704
 30
0.0
 11
-193.529789
 21
76.632704
 31
0.0
  0
LINE
  5
466
100
AcDbEntity
  8
0
 62
     7
100
AcDbLine
 10
-868.529759
 20
176.632802
 30
0.0
 11
-238.529799
 21
176.632802
 31
0.0
  0
LINE
  5
465
100
AcDbEntity
  8
0
 62
     7
100
AcDbLine
 10
-193.529789
 20
1076.053526
 30
0.0
 11
-193.529789
 21
476.05363
 31
0.0
  0
LINE
  5
464
100
AcDbEntity
  8
0
 62
     7
100
AcDbLine
 10
1295.089941
 20
176.632802
 30
0.0
 11
1295.089941
 21
51.63268
 31
0.0
  0
LINE
  5
463
100
AcDbEntity
  8
0
 62
     7
100
AcDbLine
 10
-913.529769
 20
476.05363
 30
0.0
 11
-193.529789
 21
476.05363
 31
0.0
  0
LINE
  5
462
100
AcDbEntity
  8
0
 62
     7
100
AcDbLine
 10
-913.529769
 20
1076.053526
 30
0.0
 11
-193.529789
 21
1076.053526
 31
0.0
  0
LINE
  5
461
100
AcDbEntity
  8
0
 62
     7
100
AcDbLine
 10
-913.529769
 20
1076.053526
 30
0.0
 11
-913.529769
 21
476.05363
 31
0.0
  0
LINE
  5
460
100
AcDbEntity
  8
0
 62
     7
100
AcDbLine
 10
1195.089844
 20
176.632802
 30
0.0
 11
1295.089941
 21
176.632802
 31
0.0
  0
LINE
  5
45F
100
AcDbEntity
  8
0
 62
     7
100
AcDbLine
 10
695.090044
 20
76.632704
 30
0.0
 11
1295.089941
 21
76.632704
 31
0.0
  0
LINE
  5
45E
100
AcDbEntity
  8
0
 62
     7
100
AcDbLine
 10
-913.529769
 20
-623.367291
 30
0.0
 11
-863.52972
 21
-623.367291
 31
0.0
  0
LINE
  5
45D
100
AcDbEntity
  8
0
 62
     7
100
AcDbLine
 10
705.089779
 20
-623.367291
 30
0.0
 11
1292.089952
 21
-623.367291
 31
0.0
  0
LINE
  5
45C
100
AcDbEntity
  8
0
 62
     7
100
AcDbLine
 10
-913.529769
 20
51.63268
 30
0.0
 11
-193.529789
 21
51.63268
 31
0.0
  0
LINE
  5
45B
100
AcDbEntity
  8
0
 62
     7
100
AcDbLine
 10
695.090044
 20
51.63268
 30
0.0
 11
1295.089941
 21
51.63268
 31
0.0
  0
LINE
  5
45A
100
AcDbEntity
  8
0
 62
     7
100
AcDbLine
 10
-863.52972
 20
-193.367353
 30
0.0
 11
-863.52972
 21
-623.367291
 31
0.0
  0
LINE
  5
459
100
AcDbEntity
  8
0
 62
     7
100
AcDbLine
 10
-243.529838
 20
-193.367353
 30
0.0
 11
-243.529838
 21
-623.367291
 31
0.0
  0
LINE
  5
458
100
AcDbEntity
  8
0
 62
     7
100
AcDbLine
 10
-868.529759
 20
176.632802
 30
0.0
 11
-868.529759
 21
76.632704
 31
0.0
  0
LINE
  5
457
100
AcDbEntity
  8
0
 62
     7
100
AcDbLine
 10
-238.529799
 20
176.632802
 30
0.0
 11
-238.529799
 21
76.632704
 31
0.0
  0
LINE
  5
456
100
AcDbEntity
  8
0
 62
     7
100
AcDbLine
 10
-873.529626
 20
46.632812
 30
0.0
 11
-233.529759
 21
46.632812
 31
0.0
  0
LINE
  5
455
100
AcDbEntity
  8
0
 62
     7
100
AcDbLine
 10
-873.529626
 20
-193.367353
 30
0.0
 11
-233.529759
 21
-193.367353
 31
0.0
  0
LINE
  5
454
100
AcDbEntity
  8
0
 62
     7
100
AcDbLine
 10
-873.529626
 20
51.63268
 30
0.0
 11
-873.529626
 21
-193.367353
 31
0.0
  0
LINE
  5
453
100
AcDbEntity
  8
0
 62
     7
100
AcDbLine
 10
-233.529759
 20
51.63268
 30
0.0
 11
-233.529759
 21
-193.367353
 31
0.0
  0
LINE
  5
452
100
AcDbEntity
  8
0
 62
     7
100
AcDbLine
 10
-863.52972
 20
-198.36722
 30
0.0
 11
-243.529838
 21
-198.36722
 31
0.0
  0
LINE
  5
451
100
AcDbEntity
  8
0
 62
     7
100
AcDbLine
 10
-843.529735
 20
16.632921
 30
0.0
 11
-843.529735
 21
-163.367117
 31
0.0
  0
LINE
  5
450
100
AcDbEntity
  8
0
 62
     7
100
AcDbLine
 10
-263.529651
 20
16.632921
 30
0.0
 11
-263.529651
 21
-163.367117
 31
0.0
  0
LINE
  5
44F
100
AcDbEntity
  8
0
 62
     7
100
AcDbLine
 10
-843.529735
 20
-163.367117
 30
0.0
 11
-263.529651
 21
-163.367117
 31
0.0
  0
LINE
  5
44E
100
AcDbEntity
  8
0
 62
     7
100
AcDbLine
 10
-843.529735
 20
16.632921
 30
0.0
 11
-263.529651
 21
16.632921
 31
0.0
  0
LINE
  5
44D
100
AcDbEntity
  8
0
 62
     7
100
AcDbLine
 10
-778.52974
 20
176.632802
 30
0.0
 11
-778.52974
 21
76.632704
 31
0.0
  0
LINE
  5
44C
100
AcDbEntity
  8
0
 62
     7
100
AcDbLine
 10
-328.529645
 20
176.632802
 30
0.0
 11
-328.529645
 21
76.632704
 31
0.0
  0
LINE
  5
44B
100
AcDbEntity
  8
0
  6
AI9-LTYPE2
 62
     7
100
AcDbLine
 10
1195.089844
 20
176.632802
 30
0.0
 11
1195.089844
 21
-68.367231
 31
0.0
  0
CIRCLE
  5
44A
100
AcDbEntity
  8
0
 62
     7
100
AcDbCircle
 10
-885.278005
 20
130.074748
 30
0.0
 40
15.000032
  0
LINE
  5
449
100
AcDbEntity
  8
0
 62
     7
100
AcDbLine
 10
-753.529716
 20
126.632753
 30
0.0
 11
-653.529791
 21
126.632753
 31
0.0
  0
LINE
  5
448
100
AcDbEntity
  8
0
 62
     7
100
AcDbLine
 10
-653.529791
 20
126.632753
 30
0.0
 11
-653.529791
 21
76.632704
 31
0.0
  0
LINE
  5
447
100
AcDbEntity
  8
0
 62
     7
100
AcDbLine
 10
-753.529716
 20
126.632753
 30
0.0
 11
-753.529716
 21
76.632704
 31
0.0
  0
LINE
  5
446
100
AcDbEntity
  8
0
 62
     7
100
AcDbLine
 10
-731.029797
 20
116.632674
 30
0.0
 11
-676.029709
 21
116.632674
 31
0.0
  0
LINE
  5
445
100
AcDbEntity
  8
0
 62
     7
100
AcDbLine
 10
-676.029709
 20
116.632674
 30
0.0
 11
-676.029709
 21
76.632704
 31
0.0
  0
LINE
  5
444
100
AcDbEntity
  8
0
 62
     7
100
AcDbLine
 10
-731.029797
 20
116.632674
 30
0.0
 11
-731.029797
 21
76.632704
 31
0.0
  0
LINE
  5
443
100
AcDbEntity
  8
0
 62
     7
100
AcDbLine
 10
-701.029734
 20
116.632674
 30
0.0
 11
-701.029734
 21
76.632704
 31
0.0
  0
LINE
  5
442
100
AcDbEntity
  8
0
 62
     7
100
AcDbLine
 10
-706.029773
 20
116.632674
 30
0.0
 11
-706.029773
 21
76.632704
 31
0.0
  0
LINE
  5
441
100
AcDbEntity
  8
0
 62
     7
100
AcDbLine
 10
-843.529735
 20
-13.367315
 30
0.0
 11
-263.529651
 21
-13.367315
 31
0.0
  0
LINE
  5
440
100
AcDbEntity
  8
0
 62
     7
100
AcDbLine
 10
-843.529735
 20
-133.367225
 30
0.0
 11
-263.529651
 21
-133.367225
 31
0.0
  0
LINE
  5
43F
100
AcDbEntity
  8
0
 62
     7
100
AcDbLine
 10
-613.529648
 20
-45.867312
 30
0.0
 11
-493.529738
 21
-45.867312
 31
0.0
  0
LINE
  5
43E
100
AcDbEntity
  8
0
 62
     7
100
AcDbLine
 10
-613.529648
 20
-100.867228
 30
0.0
 11
-493.529738
 21
-100.867228
 31
0.0
  0
LINE
  5
43D
100
AcDbEntity
  8
0
 62
     7
100
AcDbLine
 10
-493.529738
 20
-45.867312
 30
0.0
 11
-493.529738
 21
-100.867228
 31
0.0
  0
LINE
  5
43C
100
AcDbEntity
  8
0
 62
     7
100
AcDbLine
 10
-613.529648
 20
-45.867312
 30
0.0
 11
-613.529648
 21
-100.867228
 31
0.0
  0
LINE
  5
43B
100
AcDbEntity
  8
0
 62
     7
100
AcDbLine
 10
-616.529637
 20
-42.867323
 30
0.0
 11
-490.529749
 21
-42.867323
 31
0.0
  0
LINE
  5
43A
100
AcDbEntity
  8
0
 62
     7
100
AcDbLine
 10
-616.529637
 20
-42.867323
 30
0.0
 11
-616.529637
 21
-103.867217
 31
0.0
  0
LINE
  5
439
100
AcDbEntity
  8
0
 62
     7
100
AcDbLine
 10
-616.529637
 20
-103.867217
 30
0.0
 11
-490.529749
 21
-103.867217
 31
0.0
  0
LINE
  5
438
100
AcDbEntity
  8
0
 62
     7
100
AcDbLine
 10
-490.529749
 20
-42.867323
 30
0.0
 11
-490.529749
 21
-103.867217
 31
0.0
  0
LINE
  5
437
100
AcDbEntity
  8
0
 62
     7
100
AcDbLine
 10
-435.353444
 20
-54.066295
 30
0.0
 11
-435.353444
 21
-94.066265
 31
0.0
  0
LINE
  5
436
100
AcDbEntity
  8
0
 62
     7
100
AcDbLine
 10
-405.35338
 20
-54.066295
 30
0.0
 11
-405.35338
 21
-94.066265
 31
0.0
  0
LINE
  5
435
100
AcDbEntity
  8
0
 62
     7
100
AcDbLine
 10
-435.353444
 20
-54.066295
 30
0.0
 11
-405.35338
 21
-54.066295
 31
0.0
  0
LINE
  5
434
100
AcDbEntity
  8
0
 62
     7
100
AcDbLine
 10
-435.353444
 20
-94.066265
 30
0.0
 11
-405.35338
 21
-94.066265
 31
0.0
  0
LINE
  5
433
100
AcDbEntity
  8
0
 62
     7
100
AcDbLine
 10
-432.353455
 20
-57.066284
 30
0.0
 11
-432.353455
 21
-91.066276
 31
0.0
  0
LINE
  5
432
100
AcDbEntity
  8
0
 62
     7
100
AcDbLine
 10
-408.353369
 20
-57.066284
 30
0.0
 11
-408.353369
 21
-91.066276
 31
0.0
  0
LINE
  5
431
100
AcDbEntity
  8
0
 62
     7
100
AcDbLine
 10
-432.353455
 20
-57.066284
 30
0.0
 11
-408.353369
 21
-57.066284
 31
0.0
  0
LINE
  5
430
100
AcDbEntity
  8
0
 62
     7
100
AcDbLine
 10
-432.353455
 20
-91.066276
 30
0.0
 11
-408.353369
 21
-91.066276
 31
0.0
  0
LINE
  5
42F
100
AcDbEntity
  8
0
 62
     7
100
AcDbLine
 10
-432.353455
 20
-72.06623
 30
0.0
 11
-408.353369
 21
-72.06623
 31
0.0
  0
LINE
  5
42E
100
AcDbEntity
  8
0
 62
     7
100
AcDbLine
 10
-848.529774
 20
-523.367193
 30
0.0
 11
-258.529784
 21
-523.367193
 31
0.0
  0
LINE
  5
42D
100
AcDbEntity
  8
0
 62
     7
100
AcDbLine
 10
-243.529838
 20
-623.367291
 30
0.0
 11
-193.529789
 21
-623.367291
 31
0.0
  0
LINE
  5
42C
100
AcDbEntity
  8
0
 62
     7
100
AcDbLine
 10
-913.529769
 20
976.053429
 30
0.0
 11
-884.60113
 21
976.053429
 31
0.0
  0
LINE
  5
42B
100
AcDbEntity
  8
0
 62
     7
100
AcDbLine
 10
-848.529774
 20
606.053619
 30
0.0
 11
-258.529784
 21
606.053619
 31
0.0
  0
LINE
  5
42A
100
AcDbEntity
  8
0
 62
     7
100
AcDbLine
 10
-873.529799
 20
1076.053526
 30
0.0
 11
-873.529799
 21
976.053429
 31
0.0
  0
LINE
  5
429
100
AcDbEntity
  8
0
 62
     7
100
AcDbLine
 10
-233.529759
 20
1076.053526
 30
0.0
 11
-233.529759
 21
976.053429
 31
0.0
  0
POLYLINE
  5
423
100
AcDbEntity
  8
0
 62
     7
100
AcDb2dPolyline
 66
     1
 10
0.0
 20
0.0
 30
0.0
 70
     1
  0
VERTEX
  5
424
100
AcDbEntity
  8
0
 62
     7
100
AcDbVertex
100
AcDb2dVertex
 10
-895.600975
 20
1047.857831
 30
0.0
  0
VERTEX
  5
425
100
AcDbEntity
  8
0
 62
     7
100
AcDbVertex
100
AcDb2dVertex
 10
-875.590999
 20
1047.857831
 30
0.0
  0
VERTEX
  5
426
100
AcDbEntity
  8
0
 62
     7
100
AcDbVertex
100
AcDb2dVertex
 10
-875.590999
 20
1006.33065
 30
0.0
  0
VERTEX
  5
427
100
AcDbEntity
  8
0
 62
     7
100
AcDbVertex
100
AcDb2dVertex
 10
-895.600975
 20
1006.33065
 30
0.0
  0
SEQEND
  5
428
100
AcDbEntity
  8
0
 62
     7
  0
LINE
  5
422
100
AcDbEntity
  8
0
 62
     7
100
AcDbLine
 10
705.089779
 20
51.63268
 30
0.0
 11
705.089779
 21
-623.367291
 31
0.0
  0
LINE
  5
421
100
AcDbEntity
  8
0
 62
     7
100
AcDbLine
 10
-666.029803
 20
976.053429
 30
0.0
 11
-666.029803
 21
946.053537
 31
0.0
  0
LINE
  5
420
100
AcDbEntity
  8
0
 62
     7
100
AcDbLine
 10
-721.029719
 20
976.053429
 30
0.0
 11
-721.029719
 21
946.053537
 31
0.0
  0
LINE
  5
41F
100
AcDbEntity
  8
0
 62
     7
100
AcDbLine
 10
-721.029719
 20
946.053537
 30
0.0
 11
-696.029694
 21
946.053537
 31
0.0
  0
LINE
  5
41E
100
AcDbEntity
  8
0
 62
     7
100
AcDbLine
 10
-691.029827
 20
976.053429
 30
0.0
 11
-691.029827
 21
946.053537
 31
0.0
  0
LINE
  5
41D
100
AcDbEntity
  8
0
 62
     7
100
AcDbLine
 10
-696.029694
 20
976.053429
 30
0.0
 11
-696.029694
 21
946.053537
 31
0.0
  0
LINE
  5
41C
100
AcDbEntity
  8
0
 62
     7
100
AcDbLine
 10
-691.029827
 20
946.053537
 30
0.0
 11
-666.029803
 21
946.053537
 31
0.0
  0
LINE
  5
41B
100
AcDbEntity
  8
0
 62
     7
100
AcDbLine
 10
-843.529735
 20
616.053697
 30
0.0
 11
-263.529823
 21
616.053697
 31
0.0
  0
LINE
  5
41A
100
AcDbEntity
  8
0
 62
     7
100
AcDbLine
 10
-843.529735
 20
966.053695
 30
0.0
 11
-733.529903
 21
966.053695
 31
0.0
  0
LINE
  5
419
100
AcDbEntity
  8
0
 62
     7
100
AcDbLine
 10
-733.529903
 20
936.053459
 30
0.0
 11
-653.529791
 21
936.053459
 31
0.0
  0
LINE
  5
418
100
AcDbEntity
  8
0
 62
     7
100
AcDbLine
 10
-653.529791
 20
966.053695
 30
0.0
 11
-453.529768
 21
966.053695
 31
0.0
  0
LINE
  5
417
100
AcDbEntity
  8
0
 62
     7
100
AcDbLine
 10
-843.529735
 20
966.053695
 30
0.0
 11
-843.529735
 21
616.053697
 31
0.0
  0
LINE
  5
416
100
AcDbEntity
  8
0
 62
     7
100
AcDbLine
 10
-833.529656
 20
966.053695
 30
0.0
 11
-833.529656
 21
616.053697
 31
0.0
  0
LINE
  5
415
100
AcDbEntity
  8
0
 62
     7
100
AcDbLine
 10
-823.52975
 20
966.053695
 30
0.0
 11
-823.52975
 21
616.053697
 31
0.0
  0
LINE
  5
414
100
AcDbEntity
  8
0
 62
     7
100
AcDbLine
 10
-813.529843
 20
966.053695
 30
0.0
 11
-813.529843
 21
616.053697
 31
0.0
  0
LINE
  5
413
100
AcDbEntity
  8
0
 62
     7
100
AcDbLine
 10
-803.529765
 20
966.053695
 30
0.0
 11
-803.529765
 21
616.053697
 31
0.0
  0
LINE
  5
412
100
AcDbEntity
  8
0
 62
     7
100
AcDbLine
 10
-793.529686
 20
966.053695
 30
0.0
 11
-793.529686
 21
616.053697
 31
0.0
  0
LINE
  5
411
100
AcDbEntity
  8
0
 62
     7
100
AcDbLine
 10
-783.52978
 20
966.053695
 30
0.0
 11
-783.52978
 21
616.053697
 31
0.0
  0
LINE
  5
410
100
AcDbEntity
  8
0
 62
     7
100
AcDbLine
 10
-773.529873
 20
966.053695
 30
0.0
 11
-773.529873
 21
616.053697
 31
0.0
  0
LINE
  5
40F
100
AcDbEntity
  8
0
 62
     7
100
AcDbLine
 10
-763.529795
 20
966.053695
 30
0.0
 11
-763.529795
 21
616.053697
 31
0.0
  0
LINE
  5
40E
100
AcDbEntity
  8
0
 62
     7
100
AcDbLine
 10
-753.529716
 20
966.053695
 30
0.0
 11
-753.529716
 21
616.053697
 31
0.0
  0
LINE
  5
40D
100
AcDbEntity
  8
0
 62
     7
100
AcDbLine
 10
-743.52981
 20
966.053695
 30
0.0
 11
-743.52981
 21
616.053697
 31
0.0
  0
LINE
  5
40C
100
AcDbEntity
  8
0
 62
     7
100
AcDbLine
 10
-733.529903
 20
966.053695
 30
0.0
 11
-733.529903
 21
616.053697
 31
0.0
  0
LINE
  5
40B
100
AcDbEntity
  8
0
 62
     7
100
AcDbLine
 10
-723.529824
 20
936.053459
 30
0.0
 11
-723.529824
 21
616.053697
 31
0.0
  0
LINE
  5
40A
100
AcDbEntity
  8
0
 62
     7
100
AcDbLine
 10
-713.529746
 20
936.053459
 30
0.0
 11
-713.529746
 21
616.053697
 31
0.0
  0
LINE
  5
409
100
AcDbEntity
  8
0
 62
     7
100
AcDbLine
 10
-703.529667
 20
936.053459
 30
0.0
 11
-703.529667
 21
616.053697
 31
0.0
  0
LINE
  5
408
100
AcDbEntity
  8
0
 62
     7
100
AcDbLine
 10
-693.529761
 20
936.053459
 30
0.0
 11
-693.529761
 21
616.053697
 31
0.0
  0
LINE
  5
407
100
AcDbEntity
  8
0
 62
     7
100
AcDbLine
 10
-683.529854
 20
936.053459
 30
0.0
 11
-683.529854
 21
616.053697
 31
0.0
  0
LINE
  5
406
100
AcDbEntity
  8
0
 62
     7
100
AcDbLine
 10
-673.529776
 20
936.053459
 30
0.0
 11
-673.529776
 21
616.053697
 31
0.0
  0
LINE
  5
405
100
AcDbEntity
  8
0
 62
     7
100
AcDbLine
 10
-663.529697
 20
936.053459
 30
0.0
 11
-663.529697
 21
616.053697
 31
0.0
  0
LINE
  5
404
100
AcDbEntity
  8
0
 62
     7
100
AcDbLine
 10
-653.529791
 20
966.053695
 30
0.0
 11
-653.529791
 21
616.053697
 31
0.0
  0
LINE
  5
403
100
AcDbEntity
  8
0
 62
     7
100
AcDbLine
 10
-643.529884
 20
966.053695
 30
0.0
 11
-643.529884
 21
616.053697
 31
0.0
  0
LINE
  5
402
100
AcDbEntity
  8
0
 62
     7
100
AcDbLine
 10
-633.529806
 20
966.053695
 30
0.0
 11
-633.529806
 21
616.053697
 31
0.0
  0
LINE
  5
401
100
AcDbEntity
  8
0
 62
     7
100
AcDbLine
 10
-623.529727
 20
966.053695
 30
0.0
 11
-623.529727
 21
616.053697
 31
0.0
  0
LINE
  5
400
100
AcDbEntity
  8
0
 62
     7
100
AcDbLine
 10
-613.529648
 20
966.053695
 30
0.0
 11
-613.529648
 21
616.053697
 31
0.0
  0
LINE
  5
3FF
100
AcDbEntity
  8
0
 62
     7
100
AcDbLine
 10
-603.529742
 20
966.053695
 30
0.0
 11
-603.529742
 21
616.053697
 31
0.0
  0
LINE
  5
3FE
100
AcDbEntity
  8
0
 62
     7
100
AcDbLine
 10
-593.529835
 20
966.053695
 30
0.0
 11
-593.529835
 21
616.053697
 31
0.0
  0
LINE
  5
3FD
100
AcDbEntity
  8
0
 62
     7
100
AcDbLine
 10
-583.529757
 20
966.053695
 30
0.0
 11
-583.529757
 21
616.053697
 31
0.0
  0
LINE
  5
3FC
100
AcDbEntity
  8
0
 62
     7
100
AcDbLine
 10
-573.529678
 20
966.053695
 30
0.0
 11
-573.529678
 21
616.053697
 31
0.0
  0
LINE
  5
3FB
100
AcDbEntity
  8
0
 62
     7
100
AcDbLine
 10
-563.529772
 20
966.053695
 30
0.0
 11
-563.529772
 21
616.053697
 31
0.0
  0
LINE
  5
3FA
100
AcDbEntity
  8
0
 62
     7
100
AcDbLine
 10
-553.529865
 20
966.053695
 30
0.0
 11
-553.529865
 21
616.053697
 31
0.0
  0
LINE
  5
3F9
100
AcDbEntity
  8
0
 62
     7
100
AcDbLine
 10
-543.529787
 20
966.053695
 30
0.0
 11
-543.529787
 21
616.053697
 31
0.0
  0
LINE
  5
3F8
100
AcDbEntity
  8
0
 62
     7
100
AcDbLine
 10
-533.529708
 20
966.053695
 30
0.0
 11
-533.529708
 21
616.053697
 31
0.0
  0
LINE
  5
3F7
100
AcDbEntity
  8
0
 62
     7
100
AcDbLine
 10
-523.529801
 20
966.053695
 30
0.0
 11
-523.529801
 21
616.053697
 31
0.0
  0
LINE
  5
3F6
100
AcDbEntity
  8
0
 62
     7
100
AcDbLine
 10
-513.529895
 20
966.053695
 30
0.0
 11
-513.529895
 21
616.053697
 31
0.0
  0
LINE
  5
3F5
100
AcDbEntity
  8
0
 62
     7
100
AcDbLine
 10
-503.529816
 20
966.053695
 30
0.0
 11
-503.529816
 21
616.053697
 31
0.0
  0
LINE
  5
3F4
100
AcDbEntity
  8
0
 62
     7
100
AcDbLine
 10
-493.529738
 20
966.053695
 30
0.0
 11
-493.529738
 21
616.053697
 31
0.0
  0
LINE
  5
3F3
100
AcDbEntity
  8
0
 62
     7
100
AcDbLine
 10
-843.529735
 20
736.053608
 30
0.0
 11
-263.529823
 21
736.053608
 31
0.0
  0
LINE
  5
3F2
100
AcDbEntity
  8
0
 62
     7
100
AcDbLine
 10
-843.529735
 20
846.05344
 30
0.0
 11
-623.529727
 21
846.05344
 31
0.0
  0
LINE
  5
3F1
100
AcDbEntity
  8
0
 62
     7
100
AcDbLine
 10
-631.0297
 20
846.05344
 30
0.0
 11
-263.529823
 21
846.05344
 31
0.0
  0
LINE
  5
3F0
100
AcDbEntity
  8
0
  6
AI9-LTYPE2
 62
     7
100
AcDbLine
 10
1282.090218
 20
-381.996322
 30
0.0
 11
1282.090218
 21
-623.367291
 31
0.0
  0
LINE
  5
3EF
100
AcDbEntity
  8
0
  6
AI9-LTYPE2
 62
     7
100
AcDbLine
 10
1202.090278
 20
-381.996322
 30
0.0
 11
1202.090278
 21
-623.367291
 31
0.0
  0
LINE
  5
3EE
100
AcDbEntity
  8
0
  6
AI9-LTYPE2
 62
     7
100
AcDbLine
 10
1202.090278
 20
-381.996322
 30
0.0
 11
1282.090218
 21
-381.996322
 31
0.0
  0
LINE
  5
3ED
100
AcDbEntity
  8
0
  6
AI9-LTYPE2
 62
     7
100
AcDbLine
 10
925.090131
 20
-167.058881
 30
0.0
 11
925.090131
 21
-523.367193
 31
0.0
  0
LINE
  5
3EC
100
AcDbEntity
  8
0
  6
AI9-LTYPE2
 62
     7
100
AcDbLine
 10
1175.090375
 20
-118.36728
 30
0.0
 11
1175.090375
 21
-503.367036
 31
0.0
  0
LINE
  5
3EB
100
AcDbEntity
  8
0
  6
AI9-LTYPE2
 62
     7
100
AcDbLine
 10
1195.089844
 20
-68.367231
 30
0.0
 11
1175.090375
 21
-118.36728
 31
0.0
  0
LINE
  5
3EA
100
AcDbEntity
  8
0
  6
AI9-LTYPE2
 62
     7
100
AcDbLine
 10
925.090131
 20
-523.367193
 30
0.0
 11
1175.090375
 21
-503.367036
 31
0.0
  0
LINE
  5
3E9
100
AcDbEntity
  8
0
  6
AI9-LTYPE2
 62
     7
100
AcDbLine
 10
1165.089952
 20
126.632753
 30
0.0
 11
1165.089952
 21
-93.367255
 31
0.0
  0
LINE
  5
3E8
100
AcDbEntity
  8
0
  6
AI9-LTYPE2
 62
     7
100
AcDbLine
 10
915.089708
 20
-68.367231
 30
0.0
 11
1165.089952
 21
-68.367231
 31
0.0
  0
LINE
  5
3E7
100
AcDbEntity
  8
0
  6
AI9-LTYPE2
 62
     7
100
AcDbLine
 10
915.089708
 20
-93.367255
 30
0.0
 11
1170.090164
 21
-93.367255
 31
0.0
  0
LINE
  5
3E6
100
AcDbEntity
  8
0
  6
AI9-LTYPE2
 62
     7
100
AcDbLine
 10
915.089708
 20
-68.367231
 30
0.0
 11
915.089708
 21
-93.367255
 31
0.0
  0
LINE
  5
3E5
100
AcDbEntity
  8
0
 62
     7
100
AcDbLine
 10
1165.089952
 20
126.632753
 30
0.0
 11
1195.089844
 21
126.632753
 31
0.0
  0
LINE
  5
3E4
100
AcDbEntity
  8
0
  6
AI9-LTYPE2
 62
     7
100
AcDbLine
 10
1170.090164
 20
121.632886
 30
0.0
 11
1170.090164
 21
-93.367255
 31
0.0
  0
LINE
  5
3E3
100
AcDbEntity
  8
0
 62
     7
100
AcDbLine
 10
1170.090164
 20
121.632886
 30
0.0
 11
1195.089844
 21
121.632886
 31
0.0
  0
LINE
  5
3E2
100
AcDbEntity
  8
0
 62
     7
100
AcDbLine
 10
1195.089844
 20
176.632802
 30
0.0
 11
1195.089844
 21
76.632704
 31
0.0
  0
LINE
  5
3E1
100
AcDbEntity
  8
0
 62
     7
100
AcDbLine
 10
1170.090164
 20
121.632886
 30
0.0
 11
1170.090164
 21
76.632704
 31
0.0
  0
LINE
  5
3E0
100
AcDbEntity
  8
0
 62
     7
100
AcDbLine
 10
1165.089952
 20
126.632753
 30
0.0
 11
1165.089952
 21
76.632704
 31
0.0
  0
LINE
  5
3DF
100
AcDbEntity
  8
0
 62
     7
100
AcDbLine
 10
-889.600997
 20
1006.33065
 30
0.0
 11
-889.600997
 21
772.366981
 31
0.0
  0
LINE
  5
3DE
100
AcDbEntity
  8
0
 62
     7
100
AcDbLine
 10
-881.601141
 20
1006.33065
 30
0.0
 11
-881.601141
 21
772.62054
 31
0.0
  0
CIRCLE
  5
3DD
100
AcDbEntity
  8
0
 62
     7
100
AcDbCircle
 10
-885.142957
 20
758.044686
 30
0.0
 40
15.000032
  0
SPLINE
  5
3DC
100
AcDbEntity
  8
0
 62
     7
100
AcDbSpline
210
0.0
220
0.0
230
1.0
 70
     8
 71
     3
 72
     8
 73
     4
 74
     0
 42
0.00000001
 43
0.00000001
 40
0.0
 40
0.0
 40
0.0
 40
0.0
 40
1.0
 40
1.0
 40
1.0
 40
1.0
 10
-528.70812445746526
 20
-295.38627658420137
 30
0.0
 10
-529.08674045138889
 20
-292.23366970486109
 30
0.0
 10
-530.06256374782981
 20
-289.18200412326388
 30
0.0
 10
-531.5832288953992
 20
-286.39457736545137
 30
0.0
  0
SPLINE
  5
3DB
100
AcDbEntity
  8
0
 62
     7
100
AcDbSpline
210
0.0
220
0.0
230
1.0
 70
     8
 71
     3
 72
    14
 73
    10
 74
     0
 42
0.00000001
 43
0.00000001
 40
0.0
 40
0.0
 40
0.0
 40
0.0
 40
1.0
 40
1.0
 40
1.0
 40
2.0
 40
2.0
 40
2.0
 40
3.0
 40
3.0
 40
3.0
 40
3.0
 10
-287.65772162543402
 20
-286.9440700954861
 30
0.0
 10
-276.05980767144092
 20
-286.9440700954861
 30
0.0
 10
-266.6577975802951
 20
-277.54206000434027
 30
0.0
 10
-266.6577975802951
 20
-265.94414605034717
 30
0.0
 10
-266.6577975802951
 20
-254.34623209635416
 30
0.0
 10
-276.05980767144092
 20
-244.9442220052083
 30
0.0
 10
-287.65772162543402
 20
-244.9442220052083
 30
0.0
 10
-290.55608045789927
 20
-244.9442220052083
 30
0.0
 10
-293.42291666666665
 20
-245.54401312934024
 30
0.0
 10
-296.07805175781249
 20
-246.70604383680552
 30
0.0
  0
CIRCLE
  5
3DA
100
AcDbEntity
  8
0
 62
     7
100
AcDbCircle
 10
-553.790745
 20
-321.635148
 30
0.0
 40
21.00001
  0
LINE
  5
3D9
100
AcDbEntity
  8
0
  6
AI9-LTYPE2
 62
     7
100
AcDbLine
 10
825.090034
 20
-68.367231
 30
0.0
 11
925.090131
 21
-167.058881
 31
0.0
  0
LINE
  5
3D8
100
AcDbEntity
  8
0
 62
     7
100
AcDbLine
 10
1292.089952
 20
51.63268
 30
0.0
 11
1292.089952
 21
-623.367291
 31
0.0
  0
SPLINE
  5
3D7
100
AcDbEntity
  8
0
  6
AI9-LTYPE2
 62
     7
100
AcDbSpline
210
0.0
220
0.0
230
1.0
 70
     8
 71
     3
 72
    11
 73
     7
 74
     0
 42
0.00000001
 43
0.00000001
 40
0.0
 40
0.0
 40
0.0
 40
0.0
 40
1.0
 40
1.0
 40
1.0
 40
2.0
 40
2.0
 40
2.0
 40
2.0
 10
825.09003363715271
 20
-277.36739366319443
 30
0.0
 10
813.49177517361102
 20
-277.36739366319443
 30
0.0
 10
804.09010959201385
 20
-286.76940375434026
 30
0.0
 10
804.09010959201385
 20
-298.3673177083333
 30
0.0
 10
804.09010959201385
 20
-309.96523166232635
 30
0.0
 10
813.49177517361102
 20
-319.36724175347217
 30
0.0
 10
825.09003363715271
 20
-319.36724175347217
 30
0.0
  0
LINE
  5
3D6
100
AcDbEntity
  8
0
  6
AI9-LTYPE2
 62
     7
100
AcDbLine
 10
825.090034
 20
-277.367394
 30
0.0
 11
925.090131
 21
-277.367394
 31
0.0
  0
LINE
  5
3D5
100
AcDbEntity
  8
0
  6
AI9-LTYPE2
 62
     7
100
AcDbLine
 10
825.090034
 20
-319.367242
 30
0.0
 11
925.090131
 21
-319.367242
 31
0.0
  0
LINE
  5
3D4
100
AcDbEntity
  8
0
  6
AI9-LTYPE2
 62
     7
100
AcDbLine
 10
825.090034
 20
-277.367394
 30
0.0
 11
793.014128
 21
-286.082107
 31
0.0
  0
LINE
  5
3D3
100
AcDbEntity
  8
0
  6
AI9-LTYPE2
 62
     7
100
AcDbLine
 10
836.101937
 20
-317.897909
 30
0.0
 11
792.803977
 21
-326.612967
 31
0.0
  0
LINE
  5
3D2
100
AcDbEntity
  8
0
  6
AI9-LTYPE2
 62
     7
100
AcDbLine
 10
850.715343
 20
-277.367394
 30
0.0
 11
850.715343
 21
-319.367242
 31
0.0
  0
CIRCLE
  5
3D1
100
AcDbEntity
  8
0
 62
     7
100
AcDbCircle
 10
-553.529779
 20
-498.367169
 30
0.0
 40
24.999938
  0
CIRCLE
  5
3D0
100
AcDbEntity
  8
0
 62
     7
100
AcDbCircle
 10
-553.529779
 20
-498.367169
 30
0.0
 40
21.00001
  0
CIRCLE
  5
3CF
100
AcDbEntity
  8
0
 62
     7
100
AcDbCircle
 10
-553.790659
 20
-321.635148
 30
0.0
 40
25.000024
  0
INSERT
  5
3AF
100
AcDbEntity
  8
0
  6
AI9-LTYPE2
 62
     7
100
AcDbBlockReference
  2
AI9-BLK71
 10
859.769054
 20
-490.532505
 30
0.0
  0
INSERT
  5
38E
100
AcDbEntity
  8
0
 62
     7
100
AcDbBlockReference
  2
AI9-BLK70
 10
726.809039
 20
-298.281879
 30
0.0
  0
INSERT
  5
380
100
AcDbEntity
  8
0
 62
     7
100
AcDbBlockReference
  2
AI9-BLK69
 10
-596.365924
 20
-464.33307
 30
0.0
  0
INSERT
  5
372
100
AcDbEntity
  8
0
 62
     7
100
AcDbBlockReference
  2
AI9-BLK68
 10
-596.101513
 20
-287.691311
 30
0.0
  0
SPLINE
  5
370
100
AcDbEntity
  8
0
 62
     7
100
AcDbSpline
210
0.0
220
0.0
230
1.0
 70
     8
 71
     3
 72
     8
 73
     4
 74
     0
 42
0.00000001
 43
0.00000001
 40
0.0
 40
0.0
 40
0.0
 40
0.0
 40
1.0
 40
1.0
 40
1.0
 40
1.0
 10
-578.92331949869788
 20
-282.39309895833333
 30
0.0
 10
-585.36564805772559
 20
-292.63467881944445
 30
0.0
 10
-585.02544487847217
 20
-305.74361165364581
 30
0.0
 10
-578.06049533420139
 20
-315.63689236111111
 30
0.0
  0
SPLINE
  5
36F
100
AcDbEntity
  8
0
 62
     7
100
AcDbSpline
210
0.0
220
0.0
230
1.0
 70
     8
 71
     3
 72
     8
 73
     4
 74
     0
 42
0.00000001
 43
0.00000001
 40
0.0
 40
0.0
 40
0.0
 40
0.0
 40
1.0
 40
1.0
 40
1.0
 40
1.0
 10
-572.76073269314236
 20
-282.39309895833333
 30
0.0
 10
-579.15138481987844
 20
-290.08668619791666
 30
0.0
 10
-580.34166531032986
 20
-300.84881998697915
 30
0.0
 10
-575.78656005859375
 20
-309.75301378038193
 30
0.0
  0
SPLINE
  5
36E
100
AcDbEntity
  8
0
 62
     7
100
AcDbSpline
210
0.0
220
0.0
230
1.0
 70
     8
 71
     3
 72
     8
 73
     4
 74
     0
 42
0.00000001
 43
0.00000001
 40
0.0
 40
0.0
 40
0.0
 40
0.0
 40
1.0
 40
1.0
 40
1.0
 40
1.0
 10
-534.121058485243
 20
-282.60945095486107
 30
0.0
 10
-542.67471381293399
 20
-272.0743489583333
 30
0.0
 10
-558.07119004991318
 20
-270.28634440104162
 30
0.0
 10
-568.81127522786448
 20
-278.58144531249997
 30
0.0
  0
SPLINE
  5
36D
100
AcDbEntity
  8
0
 62
     7
100
AcDbSpline
210
0.0
220
0.0
230
1.0
 70
     8
 71
     3
 72
    11
 73
     7
 74
     0
 42
0.00000001
 43
0.00000001
 40
0.0
 40
0.0
 40
0.0
 40
0.0
 40
1.0
 40
1.0
 40
1.0
 40
2.0
 40
2.0
 40
2.0
 40
2.0
 10
-528.00136311848951
 20
-282.60945095486107
 30
0.0
 10
-536.70401882595479
 20
-268.5107421875
 30
0.0
 10
-555.18833414713538
 20
-264.13615993923611
 30
0.0
 10
-569.28738742404505
 20
-272.83881564670139
 30
0.0
 10
-571.82435574001727
 20
-274.40495605468749
 30
0.0
 10
-574.11396620008679
 20
-276.34041069878469
 30
0.0
 10
-576.08025444878467
 20
-278.58144531249997
 30
0.0
  0
LINE
  5
36C
100
AcDbEntity
  8
0
 62
     7
100
AcDbLine
 10
393.996278
 20
1039.010482
 30
0.0
 11
1094.713542
 21
1039.010482
 31
0.0
  0
LINE
  5
36B
100
AcDbEntity
  8
0
 62
     7
100
AcDbLine
 10
393.996278
 20
989.010777
 30
0.0
 11
1094.713542
 21
989.010777
 31
0.0
  0
LINE
  5
36A
100
AcDbEntity
  8
0
 62
     7
100
AcDbLine
 10
393.996278
 20
939.010729
 30
0.0
 11
1094.713542
 21
939.010729
 31
0.0
  0
LINE
  5
369
100
AcDbEntity
  8
0
 62
     7
100
AcDbLine
 10
393.996278
 20
889.01068
 30
0.0
 11
1094.713542
 21
889.01068
 31
0.0
  0
LINE
  5
368
100
AcDbEntity
  8
0
 62
     7
100
AcDbLine
 10
393.996278
 20
839.010631
 30
0.0
 11
1094.713542
 21
839.010631
 31
0.0
  0
LINE
  5
367
100
AcDbEntity
  8
0
 62
     7
100
AcDbLine
 10
393.996278
 20
789.010582
 30
0.0
 11
1094.713542
 21
789.010582
 31
0.0
  0
LINE
  5
366
100
AcDbEntity
  8
0
 62
     7
100
AcDbLine
 10
393.996278
 20
739.010533
 30
0.0
 11
1094.713542
 21
739.010533
 31
0.0
  0
LINE
  5
365
100
AcDbEntity
  8
0
 62
     7
100
AcDbLine
 10
393.996278
 20
689.010484
 30
0.0
 11
1094.713542
 21
689.010484
 31
0.0
  0
LINE
  5
364
100
AcDbEntity
  8
0
 62
     7
100
AcDbLine
 10
393.996278
 20
639.01078
 30
0.0
 11
1094.713542
 21
639.01078
 31
0.0
  0
LINE
  5
363
100
AcDbEntity
  8
0
 62
     7
100
AcDbLine
 10
393.996278
 20
1039.010482
 30
0.0
 11
393.996278
 21
639.01078
 31
0.0
  0
LINE
  5
362
100
AcDbEntity
  8
0
 62
     7
100
AcDbLine
 10
-848.529774
 20
976.053429
 30
0.0
 11
-848.529774
 21
606.053619
 31
0.0
  0
LINE
  5
361
100
AcDbEntity
  8
0
 62
     7
100
AcDbLine
 10
-258.529784
 20
976.053429
 30
0.0
 11
-258.529784
 21
606.053619
 31
0.0
  0
INSERT
  5
33F
100
AcDbEntity
  8
0
 62
     7
100
AcDbBlockReference
  2
AI9-BLK64
 10
-116.184467
 20
776.053578
 30
0.0
  0
INSERT
  5
334
100
AcDbEntity
  8
0
 62
     7
100
AcDbBlockReference
  2
AI9-BLK63
 10
-573.127721
 20
-564.160913
 30
0.0
  0
MTEXT
  5
332
100
AcDbEntity
  8
0
 62
     7
100
AcDbMText
 10
-585.094347
 20
-589.977583
 30
0.0
 40
20.0
 41
0.0
 71
     1
 72
     2
  1
\fMS UI Gothic|b0|i0|c128;排水バルブ　４０A
  7
KANJISTD
210
0.0
220
0.0
230
1.0
 11
1.000001
 21
0.0
 31
0.0
  0
INSERT
  5
328
100
AcDbEntity
  8
0
 62
     7
100
AcDbBlockReference
  2
AI9-BLK62
 10
-614.639227
 20
-368.559588
 30
0.0
  0
MTEXT
  5
326
100
AcDbEntity
  8
0
 62
     7
100
AcDbMText
 10
-624.830595
 20
-379.613851
 30
0.0
 40
20.0
 41
0.0
 71
     1
 72
     2
  1
\fMS UI Gothic|b0|i0|c128;排油バルブ　３２A
  7
KANJISTD
210
0.0
220
0.0
230
1.0
 11
1.000001
 21
0.0
 31
0.0
  0
INSERT
  5
31C
100
AcDbEntity
  8
0
 62
     7
100
AcDbBlockReference
  2
AI9-BLK61
 10
-723.649197
 20
-100.583697
 30
0.0
  0
MTEXT
  5
31A
100
AcDbEntity
  8
0
 62
     7
100
AcDbMText
 10
-1029.425537
 20
-96.938943
 30
0.0
 40
20.0
 41
0.0
 71
     1
 72
     2
  1
\fMS UI Gothic|b0|i0|c128;コントロールパネル
  7
KANJISTD
210
0.0
220
0.0
230
1.0
 11
1.000001
 21
0.0
 31
0.0
  0
INSERT
  5
310
100
AcDbEntity
  8
0
 62
     7
100
AcDbBlockReference
  2
AI9-BLK60
 10
-701.681632
 20
-327.016215
 30
0.0
  0
MTEXT
  5
30E
100
AcDbEntity
  8
0
 62
     7
100
AcDbMText
 10
-956.737295
 20
-330.975993
 30
0.0
 40
20.0
 41
0.0
 71
     1
 72
     2
  1
\fMS UI Gothic|b0|i0|c128;水位確認窓
  7
KANJISTD
210
0.0
220
0.0
230
1.0
 11
1.000001
 21
0.0
 31
0.0
  0
INSERT
  5
304
100
AcDbEntity
  8
0
 62
     7
100
AcDbBlockReference
  2
AI9-BLK59
 10
810.147276
 20
-193.406283
 30
0.0
  0
MTEXT
  5
302
100
AcDbEntity
  8
0
 62
     7
100
AcDbMText
 10
557.129818
 20
-127.156565
 30
0.0
 40
20.0
 41
0.0
 71
     1
 72
     2
  1
\fMS UI Gothic|b0|i0|c128;空冷パイプ
  7
KANJISTD
210
0.0
220
0.0
230
1.0
 11
1.000001
 21
0.0
 31
0.0
  0
POLYLINE
  5
2FC
100
AcDbEntity
  8
0
 62
     7
100
AcDb2dPolyline
 66
     1
 10
0.0
 20
0.0
 30
0.0
 70
     1
  0
VERTEX
  5
2FD
100
AcDbEntity
  8
0
 62
     7
100
AcDbVertex
100
AcDb2dVertex
 10
695.477273
 20
43.962174
 30
0.0
  0
VERTEX
  5
2FE
100
AcDbEntity
  8
0
 62
     7
100
AcDbVertex
100
AcDb2dVertex
 10
705.477007
 20
43.962174
 30
0.0
  0
VERTEX
  5
2FF
100
AcDbEntity
  8
0
 62
     7
100
AcDbVertex
100
AcDb2dVertex
 10
705.477007
 20
-182.101202
 30
0.0
  0
VERTEX
  5
300
100
AcDbEntity
  8
0
 62
     7
100
AcDbVertex
100
AcDb2dVertex
 10
695.477273
 20
-182.101202
 30
0.0
  0
SEQEND
  5
301
100
AcDbEntity
  8
0
 62
     7
  0
POLYLINE
  5
2F6
100
AcDbEntity
  8
0
  6
AI9-LTYPE2
 62
     7
100
AcDb2dPolyline
 66
     1
 10
0.0
 20
0.0
 30
0.0
 70
     1
  0
VERTEX
  5
2F7
100
AcDbEntity
  8
0
  6
AI9-LTYPE2
 62
     7
100
AcDbVertex
100
AcDb2dVertex
 10
707.755594
 20
-28.660783
 30
0.0
  0
VERTEX
  5
2F8
100
AcDbEntity
  8
0
  6
AI9-LTYPE2
 62
     7
100
AcDbVertex
100
AcDb2dVertex
 10
753.190891
 20
-28.660783
 30
0.0
  0
VERTEX
  5
2F9
100
AcDbEntity
  8
0
  6
AI9-LTYPE2
 62
     7
100
AcDbVertex
100
AcDb2dVertex
 10
753.190891
 20
-119.45972
 30
0.0
  0
VERTEX
  5
2FA
100
AcDbEntity
  8
0
  6
AI9-LTYPE2
 62
     7
100
AcDbVertex
100
AcDb2dVertex
 10
707.755594
 20
-119.45972
 30
0.0
  0
SEQEND
  5
2FB
100
AcDbEntity
  8
0
  6
AI9-LTYPE2
 62
     7
  0
INSERT
  5
2EC
100
AcDbEntity
  8
0
 62
     7
100
AcDbBlockReference
  2
AI9-BLK58
 10
1199.074786
 20
-606.543856
 30
0.0
  0
MTEXT
  5
2EA
100
AcDbEntity
  8
0
 62
     7
100
AcDbMText
 10
1077.909055
 20
-587.763075
 30
0.0
 40
20.0
 41
0.0
 71
     1
 72
     2
  1
\fMS UI Gothic|b0|i0|c128;制御盤
  7
KANJISTD
210
0.0
220
0.0
230
1.0
 11
1.000001
 21
0.0
 31
0.0
  0
INSERT
  5
2DC
100
AcDbEntity
  8
0
 62
     7
100
AcDbBlockReference
  2
AI9-BLK57
 10
987.121487
 20
-114.865857
 30
0.0
  0
MTEXT
  5
2DA
100
AcDbEntity
  8
0
 62
     7
100
AcDbMText
 10
1016.436149
 20
-120.99949
 30
0.0
 40
20.0
 41
0.0
 71
     1
 72
     2
  1
\fMS UI Gothic|b0|i0|c128;ヒーター
  7
KANJISTD
210
0.0
220
0.0
230
1.0
 11
1.000001
 21
0.0
 31
0.0
  0
MTEXT
  5
2D9
100
AcDbEntity
  8
0
 62
     7
100
AcDbMText
 10
416.448655
 20
928.043071
 30
0.0
 40
25.0
 41
0.0
 71
     1
 72
     2
  1
\fMS UI Gothic|b0|i0|c128;油槽寸法
  7
KANJISTD
210
0.0
220
0.0
230
1.0
 11
1.000001
 21
0.0
 31
0.0
  0
MTEXT
  5
2D8
100
AcDbEntity
  8
0
 62
     7
100
AcDbMText
 10
421.047857
 20
826.940542
 30
0.0
 40
25.0
 41
0.0
 71
     1
 72
     2
  1
\fMS UI Gothic|b0|i0|c128;制御範囲
  7
KANJISTD
210
0.0
220
0.0
230
1.0
 11
1.000001
 21
0.0
 31
0.0
  0
MTEXT
  5
2D7
100
AcDbEntity
  8
0
 62
     7
100
AcDbMText
 10
421.047857
 20
776.389623
 30
0.0
 40
25.0
 41
0.0
 71
     1
 72
     2
  1
\fMS UI Gothic|b0|i0|c128;制御方法
  7
KANJISTD
210
0.0
220
0.0
230
1.0
 11
1.000001
 21
0.0
 31
0.0
  0
MTEXT
  5
2D6
100
AcDbEntity
  8
0
 62
     7
100
AcDbMText
 10
419.514789
 20
724.306669
 30
0.0
 40
25.0
 41
0.0
 71
     1
 72
     2
  1
\fMS UI Gothic|b0|i0|c128;電源容量
  7
KANJISTD
210
0.0
220
0.0
230
1.0
 11
1.000001
 21
0.0
 31
0.0
  0
MTEXT
  5
2D5
100
AcDbEntity
  8
0
 62
     7
100
AcDbMText
 10
419.514789
 20
1024.549497
 30
0.0
 40
25.0
 41
0.0
 71
     1
 72
     2
  1
\fMS UI Gothic|b0|i0|c128;型　　　式
  7
KANJISTD
210
0.0
220
0.0
230
1.0
 11
1.000001
 21
0.0
 31
0.0
  0
MTEXT
  5
2D4
100
AcDbEntity
  8
0
 62
     7
100
AcDbMText
 10
419.514789
 20
977.061612
 30
0.0
 40
25.0
 41
0.0
 71
     1
 72
     2
  1
\fMS UI Gothic|b0|i0|c128;寸　　　法
  7
KANJISTD
210
0.0
220
0.0
230
1.0
 11
1.000001
 21
0.0
 31
0.0
  0
MTEXT
  5
2D3
100
AcDbEntity
  8
0
 62
     7
100
AcDbMText
 10
419.514789
 20
877.491462
 30
0.0
 40
25.0
 41
0.0
 71
     1
 72
     2
  1
\fMS UI Gothic|b0|i0|c128;油　　　量
  7
KANJISTD
210
0.0
220
0.0
230
1.0
 11
1.000001
 21
0.0
 31
0.0
  0
MTEXT
  5
2D2
100
AcDbEntity
  8
0
 62
     7
100
AcDbMText
 10
419.514789
 20
676.819818
 30
0.0
 40
25.0
 41
0.0
 71
     1
 72
     2
  1
\fMS UI Gothic|b0|i0|c128;重　　　量
  7
KANJISTD
210
0.0
220
0.0
230
1.0
 11
1.000001
 21
0.0
 31
0.0
  0
LINE
  5
2D1
100
AcDbEntity
  8
0
 62
     7
100
AcDbLine
 10
593.996474
 20
1039.010482
 30
0.0
 11
593.996474
 21
639.01078
 31
0.0
  0
MTEXT
  5
2D0
100
AcDbEntity
  8
0
 62
     7
100
AcDbMText
 10
620.657378
 20
1026.282724
 30
0.0
 40
25.0
 41
0.0
 71
     1
 72
     2
  1
\fMS UI Gothic|b0|i0|c128;RE６０型
  7
KANJISTD
210
0.0
220
0.0
230
1.0
 11
1.000001
 21
0.0
 31
0.0
  0
MTEXT
  5
2CF
100
AcDbEntity
  8
0
 62
     7
100
AcDbMText
 10
620.657378
 20
973.319549
 30
0.0
 40
25.0
 41
0.0
 71
     1
 72
     2
  1
\fMS UI Gothic|b0|i0|c128;W７２０×D６００×H８００
  7
KANJISTD
210
0.0
220
0.0
230
1.0
 11
1.000001
 21
0.0
 31
0.0
  0
MTEXT
  5
2CE
100
AcDbEntity
  8
0
 62
     7
100
AcDbMText
 10
619.000977
 20
925.322134
 30
0.0
 40
25.0
 41
0.0
 71
     1
 72
     2
  1
\fMS UI Gothic|b0|i0|c128;W５９０×D３７０　　深１２０
  7
KANJISTD
210
0.0
220
0.0
230
1.0
 11
1.000001
 21
0.0
 31
0.0
  0
MTEXT
  5
2CD
100
AcDbEntity
  8
0
 62
     7
100
AcDbMText
 10
619.000977
 20
872.359303
 30
0.0
 40
25.0
 41
0.0
 71
     1
 72
     2
  1
\fMS UI Gothic|b0|i0|c128;４５L
  7
KANJISTD
210
0.0
220
0.0
230
1.0
 11
1.000001
 21
0.0
 31
0.0
  0
MTEXT
  5
2CC
100
AcDbEntity
  8
0
 62
     7
100
AcDbMText
 10
619.000977
 20
824.861772
 30
0.0
 40
25.0
 41
0.0
 71
     1
 72
     2
  1
\fMS UI Gothic|b0|i0|c128;６０～２５０度
  7
KANJISTD
210
0.0
220
0.0
230
1.0
 11
1.000001
 21
0.0
 31
0.0
  0
MTEXT
  5
2CB
100
AcDbEntity
  8
0
 62
     7
100
AcDbMText
 10
617.344575
 20
775.97001
 30
0.0
 40
25.0
 41
0.0
 71
     1
 72
     2
  1
\fMS UI Gothic|b0|i0|c128;比例制御方式
  7
KANJISTD
210
0.0
220
0.0
230
1.0
 11
1.000001
 21
0.0
 31
0.0
  0
MTEXT
  5
2CA
100
AcDbEntity
  8
0
 62
     7
100
AcDbMText
 10
619.000977
 20
726.711346
 30
0.0
 40
25.0
 41
0.0
 71
     1
 72
     2
  1
\fMS UI Gothic|b0|i0|c128;三相２００V　　１２Kw
  7
KANJISTD
210
0.0
220
0.0
230
1.0
 11
1.000001
 21
0.0
 31
0.0
  0
MTEXT
  5
2C9
100
AcDbEntity
  8
0
 62
     7
100
AcDbMText
 10
617.344575
 20
675.864837
 30
0.0
 40
25.0
 41
0.0
 71
     1
 72
     2
  1
\fMS UI Gothic|b0|i0|c128;５５Kg
  7
KANJISTD
210
0.0
220
0.0
230
1.0
 11
1.000001
 21
0.0
 31
0.0
  0
LINE
  5
2C8
100
AcDbEntity
  8
0
 62
     7
100
AcDbLine
 10
1094.713542
 20
1039.010482
 30
0.0
 11
1094.713542
 21
639.01078
 31
0.0
  0
POLYLINE
  5
2C2
100
AcDbEntity
  8
0
 62
     7
100
AcDb2dPolyline
 66
     1
 10
0.0
 20
0.0
 30
0.0
 70
     1
  0
VERTEX
  5
2C3
100
AcDbEntity
  8
0
 62
     7
100
AcDbVertex
100
AcDb2dVertex
 10
-1542.529963
 20
1334.563501
 30
0.0
  0
VERTEX
  5
2C4
100
AcDbEntity
  8
0
 62
     7
100
AcDbVertex
100
AcDb2dVertex
 10
1647.649989
 20
1334.563501
 30
0.0
  0
VERTEX
  5
2C5
100
AcDbEntity
  8
0
 62
     7
100
AcDbVertex
100
AcDb2dVertex
 10
1647.649989
 20
-1038.230168
 30
0.0
  0
VERTEX
  5
2C6
100
AcDbEntity
  8
0
 62
     7
100
AcDbVertex
100
AcDb2dVertex
 10
-1542.529963
 20
-1038.230168
 30
0.0
  0
SEQEND
  5
2C7
100
AcDbEntity
  8
0
 62
     7
  0
POLYLINE
  5
2BC
100
AcDbEntity
  8
0
 62
     7
100
AcDb2dPolyline
 66
     1
 10
0.0
 20
0.0
 30
0.0
 70
     1
  0
VERTEX
  5
2BD
100
AcDbEntity
  8
0
 62
     7
100
AcDbVertex
100
AcDb2dVertex
 10
105.440592
 20
-891.022271
 30
0.0
  0
VERTEX
  5
2BE
100
AcDbEntity
  8
0
 62
     7
100
AcDbVertex
100
AcDb2dVertex
 10
1635.107086
 20
-891.022271
 30
0.0
  0
VERTEX
  5
2BF
100
AcDbEntity
  8
0
 62
     7
100
AcDbVertex
100
AcDb2dVertex
 10
1635.107086
 20
-1022.386518
 30
0.0
  0
VERTEX
  5
2C0
100
AcDbEntity
  8
0
 62
     7
100
AcDbVertex
100
AcDb2dVertex
 10
105.440592
 20
-1022.386518
 30
0.0
  0
SEQEND
  5
2C1
100
AcDbEntity
  8
0
 62
     7
  0
MTEXT
  5
2BB
100
AcDbEntity
  8
0
 62
     7
100
AcDbMText
 10
148.097765
 20
-927.880363
 30
0.0
 40
50.0
 41
0.0
 71
     1
 72
     2
  1
\fMS UI Gothic|b0|i0|c128;ウォーターフライヤー株式会社
  7
KANJISTD
210
0.0
220
0.0
230
1.0
 11
1.000001
 21
0.0
 31
0.0
  0
LINE
  5
2BA
100
AcDbEntity
  8
0
 62
     7
100
AcDbLine
 10
996.95
 20
-891.04053
 30
0.0
 11
996.95
 21
-1022.366192
 31
0.0
  0
LINE
  5
2B9
100
AcDbEntity
  8
0
 62
     7
100
AcDbLine
 10
1076.94994
 20
-891.04053
 30
0.0
 11
1076.94994
 21
-1022.366192
 31
0.0
  0
MTEXT
  5
2B8
100
AcDbEntity
  8
0
 62
     7
100
AcDbMText
 10
1160.045643
 20
-931.439146
 30
0.0
 40
50.0
 41
0.0
 71
     1
 72
     2
  1
\fMS UI Gothic|b0|i0|c128;RE６０/１２限
  7
KANJISTD
210
0.0
220
0.0
230
1.0
 11
1.000001
 21
0.0
 31
0.0
  0
LINE
  5
2B7
100
AcDbEntity
  8
0
 62
     7
100
AcDbLine
 10
-193.529789
 20
76.632704
 30
0.0
 11
-193.529789
 21
-623.367291
 31
0.0
  0
LINE
  5
2B6
100
AcDbEntity
  8
0
 62
     7
100
AcDbLine
 10
-913.529769
 20
76.632704
 30
0.0
 11
-913.529769
 21
-623.367291
 31
0.0
  0
LINE
  5
2B5
100
AcDbEntity
  8
0
 62
     7
100
AcDbLine
 10
-353.52967
 20
126.632753
 30
0.0
 11
-353.52967
 21
76.632704
 31
0.0
  0
LINE
  5
2B4
100
AcDbEntity
  8
0
 62
     7
100
AcDbLine
 10
-453.529768
 20
126.632753
 30
0.0
 11
-353.52967
 21
126.632753
 31
0.0
  0
LINE
  5
2B3
100
AcDbEntity
  8
0
 62
     7
100
AcDbLine
 10
-431.029849
 20
116.632674
 30
0.0
 11
-376.029761
 21
116.632674
 31
0.0
  0
LINE
  5
2B2
100
AcDbEntity
  8
0
 62
     7
100
AcDbLine
 10
-376.029761
 20
116.632674
 30
0.0
 11
-376.029761
 21
76.632704
 31
0.0
  0
LINE
  5
2B1
100
AcDbEntity
  8
0
 62
     7
100
AcDbLine
 10
-401.029785
 20
116.632674
 30
0.0
 11
-401.029785
 21
76.632704
 31
0.0
  0
LINE
  5
2B0
100
AcDbEntity
  8
0
 62
     7
100
AcDbLine
 10
-406.029824
 20
116.632674
 30
0.0
 11
-406.029824
 21
76.632704
 31
0.0
  0
LINE
  5
2AF
100
AcDbEntity
  8
0
 62
     7
100
AcDbLine
 10
-431.029849
 20
116.632674
 30
0.0
 11
-431.029849
 21
76.632704
 31
0.0
  0
LINE
  5
2AE
100
AcDbEntity
  8
0
 62
     7
100
AcDbLine
 10
-453.529768
 20
126.632753
 30
0.0
 11
-453.529768
 21
76.632704
 31
0.0
  0
LINE
  5
2AD
100
AcDbEntity
  8
0
 62
     7
100
AcDbLine
 10
-353.52967
 20
126.632753
 30
0.0
 11
-353.52967
 21
76.632704
 31
0.0
  0
LINE
  5
2AC
100
AcDbEntity
  8
0
 62
     7
100
AcDbLine
 10
-561.947267
 20
-498.367169
 30
0.0
 11
-545.112119
 21
-498.367169
 31
0.0
  0
LINE
  5
2AB
100
AcDbEntity
  8
0
 62
     7
100
AcDbLine
 10
-553.529865
 20
-506.78457
 30
0.0
 11
-553.529865
 21
-489.949767
 31
0.0
  0
LINE
  5
2AA
100
AcDbEntity
  8
0
 62
     7
100
AcDbLine
 10
-553.529865
 20
-306.78472
 30
0.0
 11
-553.529865
 21
-289.949571
 31
0.0
  0
SPLINE
  5
2A9
100
AcDbEntity
  8
0
 62
     7
100
AcDbSpline
210
0.0
220
0.0
230
1.0
 70
     8
 71
     3
 72
    14
 73
    10
 74
     0
 42
0.00000001
 43
0.00000001
 40
0.0
 40
0.0
 40
0.0
 40
0.0
 40
1.0
 40
1.0
 40
1.0
 40
2.0
 40
2.0
 40
2.0
 40
3.0
 40
3.0
 40
3.0
 40
3.0
 10
-528.70812445746526
 20
-295.38627658420137
 30
0.0
 10
-530.35436333550342
 20
-281.67755262586803
 30
0.0
 10
-542.80218234592007
 20
-271.89933810763887
 30
0.0
 10
-556.51073404947908
 20
-273.54574924045136
 30
0.0
 10
-570.21928575303809
 20
-275.19181586371525
 30
0.0
 10
-579.99784478081597
 20
-287.6396348741319
 30
0.0
 10
-578.35143364800342
 20
-301.34801432291664
 30
0.0
 10
-577.99934488932286
 20
-304.27910156249999
 30
0.0
 10
-577.13100857204859
 20
-307.12475043402776
 30
0.0
 10
-575.78656005859375
 20
-309.75301378038193
 30
0.0
  0
SPLINE
  5
2A8
100
AcDbEntity
  8
0
 62
     7
100
AcDbSpline
210
0.0
220
0.0
230
1.0
 70
     8
 71
     3
 72
    14
 73
    10
 74
     0
 42
0.00000001
 43
0.00000001
 40
0.0
 40
0.0
 40
0.0
 40
0.0
 40
1.0
 40
1.0
 40
1.0
 40
2.0
 40
2.0
 40
2.0
 40
3.0
 40
3.0
 40
3.0
 40
3.0
 10
-523.79869113498262
 20
-294.35894911024303
 30
0.0
 10
-526.01250949435757
 20
-277.93893500434024
 30
0.0
 10
-541.11804741753463
 20
-266.42232530381943
 30
0.0
 10
-557.53806152343748
 20
-268.63614366319445
 30
0.0
 10
-573.95807562934021
 20
-270.8499620225694
 30
0.0
 10
-585.47451307508675
 20
-285.95567220052078
 30
0.0
 10
-583.26069471571179
 20
-302.37534179687498
 30
0.0
 10
-582.61715087890616
 20
-307.14955512152773
 30
0.0
 10
-580.83345269097219
 20
-311.69811469184026
 30
0.0
 10
-578.06049533420139
 20
-315.63689236111111
 30
0.0
  0
LINE
  5
2A7
100
AcDbEntity
  8
0
 62
     7
100
AcDbLine
 10
-544.072389
 20
-298.60124
 30
0.0
 11
-534.049573
 21
-296.50421
 31
0.0
  0
LINE
  5
2A6
100
AcDbEntity
  8
0
 62
     7
100
AcDbLine
 10
-535.652059
 20
-338.839266
 30
0.0
 11
-525.629415
 21
-336.742236
 31
0.0
  0
LINE
  5
2A5
100
AcDbEntity
  8
0
 62
     7
100
AcDbLine
 10
-613.529648
 20
-173.367196
 30
0.0
 11
-493.529738
 21
-173.367196
 31
0.0
  0
LINE
  5
2A4
100
AcDbEntity
  8
0
 62
     7
100
AcDbLine
 10
-613.529648
 20
-183.367274
 30
0.0
 11
-493.529738
 21
-183.367274
 31
0.0
  0
LINE
  5
2A3
100
AcDbEntity
  8
0
  6
AI9-LTYPE3
 62
     7
100
AcDbLine
 10
-553.529865
 20
-198.36722
 30
0.0
 11
-553.529865
 21
-623.367291
 31
0.0
  0
LINE
  5
2A2
100
AcDbEntity
  8
0
  6
AI9-LTYPE3
 62
     7
100
AcDbLine
 10
-493.529738
 20
-173.367196
 30
0.0
 11
-493.529738
 21
-183.367274
 31
0.0
  0
LINE
  5
2A1
100
AcDbEntity
  8
0
  6
AI9-LTYPE3
 62
     7
100
AcDbLine
 10
-613.529648
 20
-173.367196
 30
0.0
 11
-613.529648
 21
-183.367274
 31
0.0
  0
SPLINE
  5
29F
100
AcDbEntity
  8
0
 62
     7
100
AcDbSpline
210
0.0
220
0.0
230
1.0
 70
     8
 71
     3
 72
    11
 73
     7
 74
     0
 42
0.00000001
 43
0.00000001
 40
0.0
 40
0.0
 40
0.0
 40
0.0
 40
1.0
 40
1.0
 40
1.0
 40
2.0
 40
2.0
 40
2.0
 40
2.0
 10
-613.52964816623262
 20
-173.36719563802083
 30
0.0
 10
-616.2912367078992
 20
-173.36719563802083
 30
0.0
 10
-618.52985975477429
 20
-175.60581868489581
 30
0.0
 10
-618.52985975477429
 20
-178.36706271701388
 30
0.0
 10
-618.52985975477429
 20
-181.12865125868055
 30
0.0
 10
-616.2912367078992
 20
-183.36727430555553
 30
0.0
 10
-613.52964816623262
 20
-183.36727430555553
 30
0.0
  0
SPLINE
  5
29E
100
AcDbEntity
  8
0
 62
     7
100
AcDbSpline
210
0.0
220
0.0
230
1.0
 70
     8
 71
     3
 72
    11
 73
     7
 74
     0
 42
0.00000001
 43
0.00000001
 40
0.0
 40
0.0
 40
0.0
 40
0.0
 40
1.0
 40
1.0
 40
1.0
 40
2.0
 40
2.0
 40
2.0
 40
2.0
 10
-493.52973768446174
 20
-183.36727430555553
 30
0.0
 10
-490.76832139756942
 20
-183.36727430555553
 30
0.0
 10
-488.52987060546872
 20
-181.12865125868055
 30
0.0
 10
-488.52987060546872
 20
-178.36706271701388
 30
0.0
 10
-488.52987060546872
 20
-175.60581868489581
 30
0.0
 10
-490.76832139756942
 20
-173.36719563802083
 30
0.0
 10
-493.52973768446174
 20
-173.36719563802083
 30
0.0
  0
LINE
  5
29D
100
AcDbEntity
  8
0
 62
     7
100
AcDbLine
 10
-441.029755
 20
946.053537
 30
0.0
 11
-416.029903
 21
946.053537
 31
0.0
  0
LINE
  5
29C
100
AcDbEntity
  8
0
 62
     7
100
AcDbLine
 10
-441.029755
 20
976.053429
 30
0.0
 11
-441.029755
 21
946.053537
 31
0.0
  0
LINE
  5
29B
100
AcDbEntity
  8
0
 62
     7
100
AcDbLine
 10
-411.029692
 20
946.053537
 30
0.0
 11
-386.029667
 21
946.053537
 31
0.0
  0
LINE
  5
29A
100
AcDbEntity
  8
0
 62
     7
100
AcDbLine
 10
-411.029692
 20
976.053429
 30
0.0
 11
-411.029692
 21
946.053537
 31
0.0
  0
LINE
  5
299
100
AcDbEntity
  8
0
 62
     7
100
AcDbLine
 10
-416.029903
 20
976.053429
 30
0.0
 11
-416.029903
 21
946.053537
 31
0.0
  0
LINE
  5
298
100
AcDbEntity
  8
0
 62
     7
100
AcDbLine
 10
-386.029667
 20
976.053429
 30
0.0
 11
-386.029667
 21
946.053537
 31
0.0
  0
LINE
  5
297
100
AcDbEntity
  8
0
 62
     7
100
AcDbLine
 10
-441.029755
 20
966.053695
 30
0.0
 11
-441.029755
 21
946.053537
 31
0.0
  0
LINE
  5
296
100
AcDbEntity
  8
0
 62
     7
100
AcDbLine
 10
-453.529768
 20
936.053459
 30
0.0
 11
-373.529827
 21
936.053459
 31
0.0
  0
LINE
  5
295
100
AcDbEntity
  8
0
 62
     7
100
AcDbLine
 10
-263.529823
 20
966.053695
 30
0.0
 11
-263.529823
 21
616.053697
 31
0.0
  0
LINE
  5
294
100
AcDbEntity
  8
0
 62
     7
100
AcDbLine
 10
-483.529659
 20
966.053695
 30
0.0
 11
-483.529659
 21
616.053697
 31
0.0
  0
LINE
  5
293
100
AcDbEntity
  8
0
 62
     7
100
AcDbLine
 10
-473.529753
 20
966.053695
 30
0.0
 11
-473.529753
 21
616.053697
 31
0.0
  0
LINE
  5
292
100
AcDbEntity
  8
0
 62
     7
100
AcDbLine
 10
-463.529846
 20
966.053695
 30
0.0
 11
-463.529846
 21
616.053697
 31
0.0
  0
LINE
  5
291
100
AcDbEntity
  8
0
 62
     7
100
AcDbLine
 10
-453.529768
 20
966.053695
 30
0.0
 11
-453.529768
 21
616.053697
 31
0.0
  0
LINE
  5
290
100
AcDbEntity
  8
0
 62
     7
100
AcDbLine
 10
-443.529689
 20
936.053459
 30
0.0
 11
-443.529689
 21
616.053697
 31
0.0
  0
LINE
  5
28F
100
AcDbEntity
  8
0
 62
     7
100
AcDbLine
 10
-433.529782
 20
936.053459
 30
0.0
 11
-433.529782
 21
616.053697
 31
0.0
  0
LINE
  5
28E
100
AcDbEntity
  8
0
 62
     7
100
AcDbLine
 10
-423.529876
 20
936.053459
 30
0.0
 11
-423.529876
 21
616.053697
 31
0.0
  0
LINE
  5
28D
100
AcDbEntity
  8
0
 62
     7
100
AcDbLine
 10
-413.529797
 20
936.053459
 30
0.0
 11
-413.529797
 21
616.053697
 31
0.0
  0
LINE
  5
28C
100
AcDbEntity
  8
0
 62
     7
100
AcDbLine
 10
-403.529719
 20
936.053459
 30
0.0
 11
-403.529719
 21
616.053697
 31
0.0
  0
LINE
  5
28B
100
AcDbEntity
  8
0
 62
     7
100
AcDbLine
 10
-393.529812
 20
936.053459
 30
0.0
 11
-393.529812
 21
616.053697
 31
0.0
  0
LINE
  5
28A
100
AcDbEntity
  8
0
 62
     7
100
AcDbLine
 10
-383.529734
 20
936.053459
 30
0.0
 11
-383.529734
 21
616.053697
 31
0.0
  0
LINE
  5
289
100
AcDbEntity
  8
0
 62
     7
100
AcDbLine
 10
-373.529827
 20
966.053695
 30
0.0
 11
-373.529827
 21
616.053697
 31
0.0
  0
LINE
  5
288
100
AcDbEntity
  8
0
 62
     7
100
AcDbLine
 10
-363.529749
 20
966.053695
 30
0.0
 11
-363.529749
 21
616.053697
 31
0.0
  0
LINE
  5
287
100
AcDbEntity
  8
0
 62
     7
100
AcDbLine
 10
-353.52967
 20
966.053695
 30
0.0
 11
-353.52967
 21
616.053697
 31
0.0
  0
LINE
  5
286
100
AcDbEntity
  8
0
 62
     7
100
AcDbLine
 10
-343.529763
 20
966.053695
 30
0.0
 11
-343.529763
 21
616.053697
 31
0.0
  0
LINE
  5
285
100
AcDbEntity
  8
0
 62
     7
100
AcDbLine
 10
-333.529857
 20
966.053695
 30
0.0
 11
-333.529857
 21
616.053697
 31
0.0
  0
LINE
  5
284
100
AcDbEntity
  8
0
 62
     7
100
AcDbLine
 10
-323.529778
 20
966.053695
 30
0.0
 11
-323.529778
 21
616.053697
 31
0.0
  0
LINE
  5
283
100
AcDbEntity
  8
0
 62
     7
100
AcDbLine
 10
-313.5297
 20
966.053695
 30
0.0
 11
-313.5297
 21
616.053697
 31
0.0
  0
LINE
  5
282
100
AcDbEntity
  8
0
 62
     7
100
AcDbLine
 10
-303.529793
 20
966.053695
 30
0.0
 11
-303.529793
 21
616.053697
 31
0.0
  0
LINE
  5
281
100
AcDbEntity
  8
0
 62
     7
100
AcDbLine
 10
-293.529715
 20
966.053695
 30
0.0
 11
-293.529715
 21
616.053697
 31
0.0
  0
LINE
  5
280
100
AcDbEntity
  8
0
 62
     7
100
AcDbLine
 10
-283.529808
 20
966.053695
 30
0.0
 11
-283.529808
 21
616.053697
 31
0.0
  0
LINE
  5
27F
100
AcDbEntity
  8
0
 62
     7
100
AcDbLine
 10
-273.52973
 20
966.053695
 30
0.0
 11
-273.52973
 21
616.053697
 31
0.0
  0
LINE
  5
27E
100
AcDbEntity
  8
0
 62
     7
100
AcDbLine
 10
-373.529827
 20
966.053695
 30
0.0
 11
-263.529823
 21
966.053695
 31
0.0
  0
LINE
  5
27D
100
AcDbEntity
  8
0
  6
AI9-LTYPE2
 62
     7
100
AcDbLine
 10
-784.859759
 20
696.053638
 30
0.0
 11
-602.199763
 21
696.053638
 31
0.0
  0
LINE
  5
27C
100
AcDbEntity
  8
0
  6
AI9-LTYPE2
 62
     7
100
AcDbLine
 10
-504.859623
 20
696.053638
 30
0.0
 11
-322.199799
 21
696.053638
 31
0.0
  0
LINE
  5
27B
100
AcDbEntity
  8
0
 62
     7
100
AcDbLine
 10
-693.529761
 20
976.053429
 30
0.0
 11
-693.529761
 21
946.053537
 31
0.0
  0
LINE
  5
27A
100
AcDbEntity
  8
0
 62
     7
100
AcDbLine
 10
-413.529797
 20
976.053429
 30
0.0
 11
-413.529797
 21
946.053537
 31
0.0
  0
LINE
  5
279
100
AcDbEntity
  8
0
  6
AI9-LTYPE2
 62
     7
100
AcDbLine
 10
-784.859759
 20
946.053537
 30
0.0
 11
-602.199763
 21
946.053537
 31
0.0
  0
LINE
  5
278
100
AcDbEntity
  8
0
  6
AI9-LTYPE2
 62
     7
100
AcDbLine
 10
-504.859623
 20
946.053537
 30
0.0
 11
-322.199799
 21
946.053537
 31
0.0
  0
LINE
  5
277
100
AcDbEntity
  8
0
  6
AI9-LTYPE2
 62
     7
100
AcDbLine
 10
-568.529811
 20
912.383586
 30
0.0
 11
-568.529811
 21
729.723589
 31
0.0
  0
LINE
  5
276
100
AcDbEntity
  8
0
  6
AI9-LTYPE2
 62
     7
100
AcDbLine
 10
-818.529711
 20
912.383586
 30
0.0
 11
-818.529711
 21
729.723589
 31
0.0
  0
LINE
  5
275
100
AcDbEntity
  8
0
  6
AI9-LTYPE2
 62
     7
100
AcDbLine
 10
-288.529675
 20
912.383586
 30
0.0
 11
-288.529675
 21
729.723589
 31
0.0
  0
LINE
  5
274
100
AcDbEntity
  8
0
  6
AI9-LTYPE2
 62
     7
100
AcDbLine
 10
-538.529747
 20
912.383586
 30
0.0
 11
-538.529747
 21
729.723589
 31
0.0
  0
SPLINE
  5
273
100
AcDbEntity
  8
0
  6
AI9-LTYPE2
 62
     7
100
AcDbSpline
210
0.0
220
0.0
230
1.0
 70
     8
 71
     3
 72
     8
 73
     4
 74
     0
 42
0.00000001
 43
0.00000001
 40
0.0
 40
0.0
 40
0.0
 40
0.0
 40
1.0
 40
1.0
 40
1.0
 40
1.0
 10
-784.85975884331594
 20
946.05353732638878
 30
0.0
 10
-803.45517849392354
 20
946.05353732638878
 30
0.0
 10
-818.52971055772559
 20
930.97883300781245
 30
0.0
 10
-818.52971055772559
 20
912.38358561197913
 30
0.0
  0
SPLINE
  5
272
100
AcDbEntity
  8
0
  6
AI9-LTYPE2
 62
     7
100
AcDbSpline
210
0.0
220
0.0
230
1.0
 70
     8
 71
     3
 72
     8
 73
     4
 74
     0
 42
0.00000001
 43
0.00000001
 40
0.0
 40
0.0
 40
0.0
 40
0.0
 40
1.0
 40
1.0
 40
1.0
 40
1.0
 10
-568.52981092664925
 20
912.38358561197913
 30
0.0
 10
-568.52981092664925
 20
930.97883300781245
 30
0.0
 10
-583.6043429904513
 20
946.05353732638878
 30
0.0
 10
-602.19976264105901
 20
946.05353732638878
 30
0.0
  0
SPLINE
  5
271
100
AcDbEntity
  8
0
  6
AI9-LTYPE2
 62
     7
100
AcDbSpline
210
0.0
220
0.0
230
1.0
 70
     8
 71
     3
 72
     8
 73
     4
 74
     0
 42
0.00000001
 43
0.00000001
 40
0.0
 40
0.0
 40
0.0
 40
0.0
 40
1.0
 40
1.0
 40
1.0
 40
1.0
 10
-818.52971055772559
 20
729.72358940972219
 30
0.0
 10
-818.52971055772559
 20
711.12799750434021
 30
0.0
 10
-803.45517849392354
 20
696.05363769531243
 30
0.0
 10
-784.85975884331594
 20
696.05363769531243
 30
0.0
  0
SPLINE
  5
270
100
AcDbEntity
  8
0
  6
AI9-LTYPE2
 62
     7
100
AcDbSpline
210
0.0
220
0.0
230
1.0
 70
     8
 71
     3
 72
     8
 73
     4
 74
     0
 42
0.00000001
 43
0.00000001
 40
0.0
 40
0.0
 40
0.0
 40
0.0
 40
1.0
 40
1.0
 40
1.0
 40
1.0
 10
-602.19976264105901
 20
696.05363769531243
 30
0.0
 10
-583.6043429904513
 20
696.05363769531243
 30
0.0
 10
-568.52981092664925
 20
711.12799750434021
 30
0.0
 10
-568.52981092664925
 20
729.72358940972219
 30
0.0
  0
SPLINE
  5
26F
100
AcDbEntity
  8
0
  6
AI9-LTYPE2
 62
     7
100
AcDbSpline
210
0.0
220
0.0
230
1.0
 70
     8
 71
     3
 72
     8
 73
     4
 74
     0
 42
0.00000001
 43
0.00000001
 40
0.0
 40
0.0
 40
0.0
 40
0.0
 40
1.0
 40
1.0
 40
1.0
 40
1.0
 10
-504.85962320963534
 20
946.05353732638878
 30
0.0
 10
-523.45521511501727
 20
946.05353732638878
 30
0.0
 10
-538.52974717881943
 20
930.97883300781245
 30
0.0
 10
-538.52974717881943
 20
912.38358561197913
 30
0.0
  0
SPLINE
  5
26E
100
AcDbEntity
  8
0
  6
AI9-LTYPE2
 62
     7
100
AcDbSpline
210
0.0
220
0.0
230
1.0
 70
     8
 71
     3
 72
     8
 73
     4
 74
     0
 42
0.00000001
 43
0.00000001
 40
0.0
 40
0.0
 40
0.0
 40
0.0
 40
1.0
 40
1.0
 40
1.0
 40
1.0
 10
-288.5296752929687
 20
912.38358561197913
 30
0.0
 10
-288.5296752929687
 20
930.97883300781245
 30
0.0
 10
-303.60437961154508
 20
946.05353732638878
 30
0.0
 10
-322.19979926215274
 20
946.05353732638878
 30
0.0
  0
SPLINE
  5
26D
100
AcDbEntity
  8
0
  6
AI9-LTYPE2
 62
     7
100
AcDbSpline
210
0.0
220
0.0
230
1.0
 70
     8
 71
     3
 72
     8
 73
     4
 74
     0
 42
0.00000001
 43
0.00000001
 40
0.0
 40
0.0
 40
0.0
 40
0.0
 40
1.0
 40
1.0
 40
1.0
 40
1.0
 10
-322.19979926215274
 20
696.05363769531243
 30
0.0
 10
-303.60437961154508
 20
696.05363769531243
 30
0.0
 10
-288.5296752929687
 20
711.12799750434021
 30
0.0
 10
-288.5296752929687
 20
729.72358940972219
 30
0.0
  0
SPLINE
  5
26C
100
AcDbEntity
  8
0
  6
AI9-LTYPE2
 62
     7
100
AcDbSpline
210
0.0
220
0.0
230
1.0
 70
     8
 71
     3
 72
     8
 73
     4
 74
     0
 42
0.00000001
 43
0.00000001
 40
0.0
 40
0.0
 40
0.0
 40
0.0
 40
1.0
 40
1.0
 40
1.0
 40
1.0
 10
-538.52974717881943
 20
729.72358940972219
 30
0.0
 10
-538.52974717881943
 20
711.12799750434021
 30
0.0
 10
-523.45521511501727
 20
696.05363769531243
 30
0.0
 10
-504.85962320963534
 20
696.05363769531243
 30
0.0
  0
LINE
  5
26B
100
AcDbEntity
  8
0
  6
AI9-LTYPE2
 62
     7
100
AcDbLine
 10
-578.391397
 20
936.191951
 30
0.0
 11
-808.668125
 21
705.915224
 31
0.0
  0
LINE
  5
26A
100
AcDbEntity
  8
0
  6
AI9-LTYPE2
 62
     7
100
AcDbLine
 10
-808.668125
 20
936.191951
 30
0.0
 11
-578.391397
 21
705.915224
 31
0.0
  0
LINE
  5
269
100
AcDbEntity
  8
0
  6
AI9-LTYPE2
 62
     7
100
AcDbLine
 10
-528.667989
 20
936.191951
 30
0.0
 11
-298.391606
 21
705.915224
 31
0.0
  0
LINE
  5
268
100
AcDbEntity
  8
0
  6
AI9-LTYPE2
 62
     7
100
AcDbLine
 10
-298.391606
 20
936.191951
 30
0.0
 11
-528.667989
 21
705.915224
 31
0.0
  0
LINE
  5
267
100
AcDbEntity
  8
0
 62
     7
100
AcDbLine
 10
-848.529774
 20
-198.36722
 30
0.0
 11
-848.529774
 21
-523.367193
 31
0.0
  0
LINE
  5
266
100
AcDbEntity
  8
0
 62
     7
100
AcDbLine
 10
-258.529784
 20
-198.36722
 30
0.0
 11
-258.529784
 21
-523.367193
 31
0.0
  0
LINE
  5
265
100
AcDbEntity
  8
0
 62
     7
100
AcDbLine
 10
-868.529759
 20
176.632802
 30
0.0
 11
-238.529799
 21
176.632802
 31
0.0
  0
INSERT
  5
243
100
AcDbEntity
  8
0
  6
AI9-LTYPE1
 62
     7
100
AcDbBlockReference
  2
AI9-BLK53
 10
-553.529779
 20
1137.079087
 30
0.0
  0
INSERT
  5
220
100
AcDbEntity
  8
0
 62
     7
100
AcDbBlockReference
  2
AI9-BLK49
 10
-553.529779
 20
542.667048
 30
0.0
  0
LINE
  5
21E
100
AcDbEntity
  8
0
 62
     7
100
AcDbLine
 10
-308.657818
 20
-265.944146
 30
0.0
 11
-311.986986
 21
-250.035384
 31
0.0
  0
LINE
  5
21D
100
AcDbEntity
  8
0
 62
     7
100
AcDbLine
 10
-308.657818
 20
-265.944146
 30
0.0
 11
-303.566656
 21
-290.27341
 31
0.0
  0
LINE
  5
21C
100
AcDbEntity
  8
0
 62
     7
100
AcDbLine
 10
-310.615493
 20
-266.353768
 30
0.0
 11
-306.343575
 21
-286.767681
 31
0.0
  0
LINE
  5
21B
100
AcDbEntity
  8
0
 62
     7
100
AcDbLine
 10
-312.572997
 20
-266.76339
 30
0.0
 11
-308.301078
 21
-287.177303
 31
0.0
  0
LINE
  5
21A
100
AcDbEntity
  8
0
 62
     7
100
AcDbLine
 10
-314.5305
 20
-267.173012
 30
0.0
 11
-310.258754
 21
-287.586925
 31
0.0
  0
LINE
  5
219
100
AcDbEntity
  8
0
 62
     7
100
AcDbLine
 10
-310.615493
 20
-266.353768
 30
0.0
 11
-313.125245
 21
-254.360012
 31
0.0
  0
LINE
  5
218
100
AcDbEntity
  8
0
 62
     7
100
AcDbLine
 10
-312.572997
 20
-266.76339
 30
0.0
 11
-315.082749
 21
-254.769634
 31
0.0
  0
LINE
  5
217
100
AcDbEntity
  8
0
 62
     7
100
AcDbLine
 10
-314.5305
 20
-267.173012
 30
0.0
 11
-317.040424
 21
-255.179256
 31
0.0
  0
LINE
  5
216
100
AcDbEntity
  8
0
 62
     7
100
AcDbLine
 10
-528.790634
 20
-321.635148
 30
0.0
 11
-534.049573
 21
-296.50421
 31
0.0
  0
LINE
  5
215
100
AcDbEntity
  8
0
 62
     7
100
AcDbLine
 10
-528.790634
 20
-321.635148
 30
0.0
 11
-525.629415
 21
-336.742236
 31
0.0
  0
LINE
  5
214
100
AcDbEntity
  8
0
 62
     7
100
AcDbLine
 10
-533.230329
 20
-300.419217
 30
0.0
 11
-311.16757
 21
-253.950391
 31
0.0
  0
LINE
  5
213
100
AcDbEntity
  8
0
 62
     7
100
AcDbLine
 10
-526.448659
 20
-332.826885
 30
0.0
 11
-304.386072
 21
-286.358059
 31
0.0
  0
LINE
  5
212
100
AcDbEntity
  8
0
 62
     7
100
AcDbLine
 10
-311.986986
 20
-250.035384
 30
0.0
 11
-287.657722
 21
-244.944222
 31
0.0
  0
LINE
  5
211
100
AcDbEntity
  8
0
 62
     7
100
AcDbLine
 10
-303.566656
 20
-290.27341
 30
0.0
 11
-287.657722
 21
-286.94407
 31
0.0
  0
LINE
  5
210
100
AcDbEntity
  8
0
 62
     7
100
AcDbLine
 10
-526.833131
 20
-321.225526
 30
0.0
 11
-531.272826
 21
-300.009595
 31
0.0
  0
LINE
  5
20F
100
AcDbEntity
  8
0
 62
     7
100
AcDbLine
 10
-524.875628
 20
-320.815904
 30
0.0
 11
-529.31515
 21
-299.599973
 31
0.0
  0
LINE
  5
20E
100
AcDbEntity
  8
0
 62
     7
100
AcDbLine
 10
-522.917952
 20
-320.406283
 30
0.0
 11
-527.357475
 21
-299.190351
 31
0.0
  0
LINE
  5
20D
100
AcDbEntity
  8
0
 62
     7
100
AcDbLine
 10
-526.833131
 20
-321.225526
 30
0.0
 11
-524.491155
 21
-332.417263
 31
0.0
  0
LINE
  5
20C
100
AcDbEntity
  8
0
 62
     7
100
AcDbLine
 10
-524.875628
 20
-320.815904
 30
0.0
 11
-522.533652
 21
-332.007642
 31
0.0
  0
LINE
  5
20B
100
AcDbEntity
  8
0
 62
     7
100
AcDbLine
 10
-522.917952
 20
-320.406283
 30
0.0
 11
-520.575977
 21
-331.59802
 31
0.0
  0
LINE
  5
20A
100
AcDbEntity
  8
0
  6
AI9-LTYPE2
 62
     7
100
AcDbLine
 10
925.090131
 20
-197.745036
 30
0.0
 11
1175.090375
 21
-197.745036
 31
0.0
  0
LINE
  5
209
100
AcDbEntity
  8
0
  6
AI9-LTYPE2
 62
     7
100
AcDbLine
 10
925.090131
 20
-267.745242
 30
0.0
 11
1175.090375
 21
-267.745242
 31
0.0
  0
SPLINE
  5
208
100
AcDbEntity
  8
0
 62
     7
100
AcDbSpline
210
0.0
220
0.0
230
1.0
 70
     8
 71
     3
 72
    17
 73
    13
 74
     0
 42
0.00000001
 43
0.00000001
 40
0.0
 40
0.0
 40
0.0
 40
0.0
 40
1.0
 40
1.0
 40
1.0
 40
2.0
 40
2.0
 40
2.0
 40
3.0
 40
3.0
 40
3.0
 40
4.0
 40
4.0
 40
4.0
 40
4.0
 10
-771.34895562065969
 20
-198.36722005208333
 30
0.0
 10
-790.33539360894088
 20
-201.99525010850692
 30
0.0
 10
-802.78579644097215
 20
-220.3279812282986
 30
0.0
 10
-799.15776638454849
 20
-239.31424696180554
 30
0.0
 10
-795.52956407335057
 20
-258.30085720486107
 30
0.0
 10
-777.19700520833328
 20
-270.75143229166662
 30
0.0
 10
-758.21056722005198
 20
-267.12305772569442
 30
0.0
 10
-739.2241292317708
 20
-263.49502766927083
 30
0.0
 10
-726.77372639973953
 20
-245.16264105902775
 30
0.0
 10
-730.40175645616318
 20
-226.17603081597221
 30
0.0
 10
-733.09478759765614
 20
-212.08248969184027
 30
0.0
 10
-744.1170260959201
 20
-201.06025119357636
 30
0.0
 10
-758.21056722005198
 20
-198.36722005208333
 30
0.0
  0
SPLINE
  5
207
100
AcDbEntity
  8
0
 62
     7
100
AcDbSpline
210
0.0
220
0.0
230
1.0
 70
     8
 71
     3
 72
    17
 73
    13
 74
     0
 42
0.00000001
 43
0.00000001
 40
0.0
 40
0.0
 40
0.0
 40
0.0
 40
1.0
 40
1.0
 40
1.0
 40
2.0
 40
2.0
 40
2.0
 40
3.0
 40
3.0
 40
3.0
 40
4.0
 40
4.0
 40
4.0
 40
4.0
 10
-633.84882134331588
 20
-198.36722005208333
 30
0.0
 10
-652.83543158637144
 20
-201.99525010850692
 30
0.0
 10
-665.28583441840271
 20
-220.3279812282986
 30
0.0
 10
-661.65763210720479
 20
-239.31424696180554
 30
0.0
 10
-658.02960205078114
 20
-258.30085720486107
 30
0.0
 10
-639.69687093098958
 20
-270.75143229166662
 30
0.0
 10
-620.71060519748255
 20
-267.12305772569442
 30
0.0
 10
-601.72399495442698
 20
-263.49502766927083
 30
0.0
 10
-589.2737643771701
 20
-245.16264105902775
 30
0.0
 10
-592.90179443359375
 20
-226.17603081597221
 30
0.0
 10
-595.5948255750867
 20
-212.08248969184027
 30
0.0
 10
-606.61706407335066
 20
-201.06025119357636
 30
0.0
 10
-620.71060519748255
 20
-198.36722005208333
 30
0.0
  0
SPLINE
  5
206
100
AcDbEntity
  8
0
 62
     7
100
AcDbSpline
210
0.0
220
0.0
230
1.0
 70
     8
 71
     3
 72
    17
 73
    13
 74
     0
 42
0.00000001
 43
0.00000001
 40
0.0
 40
0.0
 40
0.0
 40
0.0
 40
1.0
 40
1.0
 40
1.0
 40
2.0
 40
2.0
 40
2.0
 40
3.0
 40
3.0
 40
3.0
 40
4.0
 40
4.0
 40
4.0
 40
4.0
 10
-486.34895290798607
 20
-198.36722005208333
 30
0.0
 10
-505.33539089626731
 20
-201.99525010850692
 30
0.0
 10
-517.78579372829859
 20
-220.3279812282986
 30
0.0
 10
-514.15776367187493
 20
-239.31424696180554
 30
0.0
 10
-510.52956136067706
 20
-258.30085720486107
 30
0.0
 10
-492.19700249565966
 20
-270.75143229166662
 30
0.0
 10
-473.21056450737842
 20
-267.12305772569442
 30
0.0
 10
-454.22412651909718
 20
-263.49502766927083
 30
0.0
 10
-441.77372368706591
 20
-245.16264105902775
 30
0.0
 10
-445.40175374348956
 20
-226.17603081597221
 30
0.0
 10
-448.09478488498257
 20
-212.08248969184027
 30
0.0
 10
-459.11702338324648
 20
-201.06025119357636
 30
0.0
 10
-473.21056450737842
 20
-198.36722005208333
 30
0.0
  0
SPLINE
  5
205
100
AcDbEntity
  8
0
 62
     7
100
AcDbSpline
210
0.0
220
0.0
230
1.0
 70
     8
 71
     3
 72
    11
 73
     7
 74
     0
 42
0.00000001
 43
0.00000001
 40
0.0
 40
0.0
 40
0.0
 40
0.0
 40
1.0
 40
1.0
 40
1.0
 40
2.0
 40
2.0
 40
2.0
 40
2.0
 10
-315.07723659939234
 20
-254.76860080295137
 30
0.0
 10
-302.91415473090274
 20
-239.74522840711802
 30
0.0
 10
-305.23287624782984
 20
-217.70591905381943
 30
0.0
 10
-320.25642089843745
 20
-205.54266493055553
 30
0.0
 10
-324.73797336154513
 20
-201.91429036458331
 30
0.0
 10
-330.04669325086803
 20
-199.44966905381943
 30
0.0
 10
-335.71060248480899
 20
-198.36722005208333
 30
0.0
  0
LINE
  5
204
100
AcDbEntity
  8
0
 62
     7
100
AcDbLine
 10
-350.697285
 20
-232.745139
 30
0.0
 11
-333.862309
 21
-232.745139
 31
0.0
  0
LINE
  5
203
100
AcDbEntity
  8
0
 62
     7
100
AcDbLine
 10
-342.279711
 20
-241.162885
 30
0.0
 11
-342.279711
 21
-224.327737
 31
0.0
  0
LINE
  5
202
100
AcDbEntity
  8
0
 62
     7
100
AcDbLine
 10
-488.197247
 20
-232.745139
 30
0.0
 11
-471.362271
 21
-232.745139
 31
0.0
  0
LINE
  5
201
100
AcDbEntity
  8
0
 62
     7
100
AcDbLine
 10
-479.779673
 20
-241.162885
 30
0.0
 11
-479.779673
 21
-224.327737
 31
0.0
  0
LINE
  5
200
100
AcDbEntity
  8
0
 62
     7
100
AcDbLine
 10
-635.697287
 20
-232.745139
 30
0.0
 11
-618.862311
 21
-232.745139
 31
0.0
  0
LINE
  5
1FF
100
AcDbEntity
  8
0
 62
     7
100
AcDbLine
 10
-627.279713
 20
-241.162885
 30
0.0
 11
-627.279713
 21
-224.327737
 31
0.0
  0
LINE
  5
1FE
100
AcDbEntity
  8
0
 62
     7
100
AcDbLine
 10
-773.197249
 20
-232.745139
 30
0.0
 11
-756.362273
 21
-232.745139
 31
0.0
  0
LINE
  5
1FD
100
AcDbEntity
  8
0
 62
     7
100
AcDbLine
 10
-764.779675
 20
-241.162885
 30
0.0
 11
-764.779675
 21
-224.327737
 31
0.0
  0
LINE
  5
1FC
100
AcDbEntity
  8
0
 62
     7
100
AcDbLine
 10
-562.208233
 20
-321.635148
 30
0.0
 11
-545.373257
 21
-321.635148
 31
0.0
  0
LINE
  5
1FB
100
AcDbEntity
  8
0
 62
     7
100
AcDbLine
 10
-553.790659
 20
-330.05255
 30
0.0
 11
-553.790659
 21
-313.217746
 31
0.0
  0
LINE
  5
1FA
100
AcDbEntity
  8
0
 62
     7
100
AcDbLine
 10
-561.947267
 20
-298.367318
 30
0.0
 11
-545.112119
 21
-298.367318
 31
0.0
  0
LINE
  5
1F9
100
AcDbEntity
  8
0
 62
     7
100
AcDbLine
 10
-553.529865
 20
-306.78472
 30
0.0
 11
-553.529865
 21
-289.949571
 31
0.0
  0
INSERT
  5
1D7
100
AcDbEntity
  8
0
  6
AI9-LTYPE1
 62
     7
100
AcDbBlockReference
  2
AI9-BLK45
 10
-154.681084
 20
126.633011
 30
0.0
  0
INSERT
  5
1B4
100
AcDbEntity
  8
0
  6
AI9-LTYPE2
 62
     7
100
AcDbBlockReference
  2
AI9-BLK41
 10
-553.529779
 20
175.065714
 30
0.0
  0
LINE
  5
1B2
100
AcDbEntity
  8
0
  6
AI9-LTYPE2
 62
     7
100
AcDbLine
 10
825.090034
 20
61.248286
 30
0.0
 11
825.090034
 21
51.63268
 31
0.0
  0
LINE
  5
1B1
100
AcDbEntity
  8
0
  6
AI9-LTYPE2
 62
     7
100
AcDbLine
 10
695.090044
 20
76.632704
 30
0.0
 11
825.090034
 21
61.248286
 31
0.0
  0
LINE
  5
1B0
100
AcDbEntity
  8
0
  6
AI9-LTYPE2
 62
     7
100
AcDbLine
 10
825.090034
 20
61.248286
 30
0.0
 11
825.090034
 21
-68.367231
 31
0.0
  0
INSERT
  5
18D
100
AcDbEntity
  8
0
 62
     7
100
AcDbBlockReference
  2
AI9-BLK37
 10
979.02379
 20
-8.367103
 30
0.0
  0
LINE
  5
18B
100
AcDbEntity
  8
0
 62
     7
100
AcDbLine
 10
695.090044
 20
76.632704
 30
0.0
 11
695.090044
 21
51.63268
 31
0.0
  0
LINE
  5
18A
100
AcDbEntity
  8
0
 62
     7
100
AcDbLine
 10
-883.529705
 20
976.053429
 30
0.0
 11
-193.529789
 21
976.053429
 31
0.0
  0
INSERT
  5
168
100
AcDbEntity
  8
0
  6
AI9-LTYPE1
 62
     7
100
AcDbBlockReference
  2
AI9-BLK33
 10
760.090039
 20
177.359975
 30
0.0
  0
INSERT
  5
146
100
AcDbEntity
  8
0
  6
AI9-LTYPE1
 62
     7
100
AcDbBlockReference
  2
AI9-BLK29
 10
1010.090283
 20
180.164455
 30
0.0
  0
INSERT
  5
124
100
AcDbEntity
  8
0
 62
     7
100
AcDbBlockReference
  2
AI9-BLK25
 10
1245.089893
 20
229.522597
 30
0.0
  0
LINE
  5
122
100
AcDbEntity
  8
0
 62
     7
100
AcDbLine
 10
705.089779
 20
-723.367388
 30
0.0
 11
1292.089952
 21
-723.367388
 31
0.0
  0
LINE
  5
121
100
AcDbEntity
  8
0
 62
     7
100
AcDbLine
 10
-913.529769
 20
-723.367388
 30
0.0
 11
-203.529696
 21
-723.367388
 31
0.0
  0
LINE
  5
120
100
AcDbEntity
  8
0
 62
     7
100
AcDbLine
 10
-243.529838
 20
-723.367388
 30
0.0
 11
-193.529789
 21
-723.367388
 31
0.0
  0
LINE
  5
11F
100
AcDbEntity
  8
0
 62
     7
100
AcDbLine
 10
715.090202
 20
-623.367291
 30
0.0
 11
715.090202
 21
-703.367231
 31
0.0
  0
LINE
  5
11E
100
AcDbEntity
  8
0
 62
     7
100
AcDbLine
 10
1282.090218
 20
-623.367291
 30
0.0
 11
1282.090218
 21
-703.367231
 31
0.0
  0
LINE
  5
11D
100
AcDbEntity
  8
0
 62
     7
100
AcDbLine
 10
745.090093
 20
-623.367291
 30
0.0
 11
745.090093
 21
-703.367231
 31
0.0
  0
LINE
  5
11C
100
AcDbEntity
  8
0
 62
     7
100
AcDbLine
 10
1252.090327
 20
-623.367291
 30
0.0
 11
1252.090327
 21
-703.367231
 31
0.0
  0
LINE
  5
11B
100
AcDbEntity
  8
0
 62
     7
100
AcDbLine
 10
-903.529862
 20
-623.367291
 30
0.0
 11
-903.529862
 21
-703.367231
 31
0.0
  0
LINE
  5
11A
100
AcDbEntity
  8
0
 62
     7
100
AcDbLine
 10
-873.529626
 20
-623.367291
 30
0.0
 11
-873.529626
 21
-703.367231
 31
0.0
  0
LINE
  5
119
100
AcDbEntity
  8
0
 62
     7
100
AcDbLine
 10
-233.529759
 20
-623.367291
 30
0.0
 11
-233.529759
 21
-703.367231
 31
0.0
  0
LINE
  5
118
100
AcDbEntity
  8
0
 62
     7
100
AcDbLine
 10
-203.529696
 20
-623.367291
 30
0.0
 11
-203.529696
 21
-703.367231
 31
0.0
  0
LINE
  5
117
100
AcDbEntity
  8
0
 62
     7
100
AcDbLine
 10
-903.529862
 20
-703.367231
 30
0.0
 11
-873.529626
 21
-703.367231
 31
0.0
  0
LINE
  5
116
100
AcDbEntity
  8
0
 62
     7
100
AcDbLine
 10
715.090202
 20
-703.367231
 30
0.0
 11
745.090093
 21
-703.367231
 31
0.0
  0
LINE
  5
115
100
AcDbEntity
  8
0
 62
     7
100
AcDbLine
 10
1252.090327
 20
-703.367231
 30
0.0
 11
1282.090218
 21
-703.367231
 31
0.0
  0
LINE
  5
114
100
AcDbEntity
  8
0
 62
     7
100
AcDbLine
 10
-233.529759
 20
-703.367231
 30
0.0
 11
-203.529696
 21
-703.367231
 31
0.0
  0
LINE
  5
113
100
AcDbEntity
  8
0
 62
     7
100
AcDbLine
 10
-898.529651
 20
-703.367231
 30
0.0
 11
-898.529651
 21
-723.367388
 31
0.0
  0
LINE
  5
112
100
AcDbEntity
  8
0
 62
     7
100
AcDbLine
 10
-878.529838
 20
-703.367231
 30
0.0
 11
-878.529838
 21
-723.367388
 31
0.0
  0
LINE
  5
111
100
AcDbEntity
  8
0
 62
     7
100
AcDbLine
 10
-228.52972
 20
-703.367231
 30
0.0
 11
-228.52972
 21
-723.367388
 31
0.0
  0
LINE
  5
110
100
AcDbEntity
  8
0
 62
     7
100
AcDbLine
 10
-208.529735
 20
-703.367231
 30
0.0
 11
-208.529735
 21
-723.367388
 31
0.0
  0
LINE
  5
10F
100
AcDbEntity
  8
0
 62
     7
100
AcDbLine
 10
-223.529681
 20
-703.367231
 30
0.0
 11
-223.529681
 21
-723.367388
 31
0.0
  0
LINE
  5
10E
100
AcDbEntity
  8
0
 62
     7
100
AcDbLine
 10
-213.529774
 20
-703.367231
 30
0.0
 11
-213.529774
 21
-723.367388
 31
0.0
  0
LINE
  5
10D
100
AcDbEntity
  8
0
 62
     7
100
AcDbLine
 10
-893.529784
 20
-703.367231
 30
0.0
 11
-893.529784
 21
-723.367388
 31
0.0
  0
LINE
  5
10C
100
AcDbEntity
  8
0
 62
     7
100
AcDbLine
 10
-883.529705
 20
-703.367231
 30
0.0
 11
-883.529705
 21
-723.367388
 31
0.0
  0
LINE
  5
10B
100
AcDbEntity
  8
0
 62
     7
100
AcDbLine
 10
-863.52972
 20
-620.366957
 30
0.0
 11
-243.529838
 21
-620.366957
 31
0.0
  0
LINE
  5
10A
100
AcDbEntity
  8
0
 62
     7
100
AcDbLine
 10
720.089724
 20
-703.367231
 30
0.0
 11
720.089724
 21
-723.367388
 31
0.0
  0
LINE
  5
109
100
AcDbEntity
  8
0
 62
     7
100
AcDbLine
 10
740.089882
 20
-703.367231
 30
0.0
 11
740.089882
 21
-723.367388
 31
0.0
  0
LINE
  5
108
100
AcDbEntity
  8
0
 62
     7
100
AcDbLine
 10
725.089936
 20
-703.367231
 30
0.0
 11
725.089936
 21
-723.367388
 31
0.0
  0
LINE
  5
107
100
AcDbEntity
  8
0
 62
     7
100
AcDbLine
 10
735.090359
 20
-703.367231
 30
0.0
 11
735.090359
 21
-723.367388
 31
0.0
  0
LINE
  5
106
100
AcDbEntity
  8
0
 62
     7
100
AcDbLine
 10
1257.089849
 20
-703.367231
 30
0.0
 11
1257.089849
 21
-723.367388
 31
0.0
  0
LINE
  5
105
100
AcDbEntity
  8
0
 62
     7
100
AcDbLine
 10
1277.090007
 20
-703.367231
 30
0.0
 11
1277.090007
 21
-723.367388
 31
0.0
  0
LINE
  5
104
100
AcDbEntity
  8
0
 62
     7
100
AcDbLine
 10
1262.090061
 20
-703.367231
 30
0.0
 11
1262.090061
 21
-723.367388
 31
0.0
  0
LINE
  5
103
100
AcDbEntity
  8
0
 62
     7
100
AcDbLine
 10
1272.089795
 20
-703.367231
 30
0.0
 11
1272.089795
 21
-723.367388
 31
0.0
  0
INSERT
  5
E1
100
AcDbEntity
  8
0
  6
AI9-LTYPE1
 62
     7
100
AcDbBlockReference
  2
AI9-BLK21
 10
557.266588
 20
-323.36717
 30
0.0
  0
INSERT
  5
BE
100
AcDbEntity
  8
0
  6
AI9-LTYPE1
 62
     7
100
AcDbBlockReference
  2
AI9-BLK17
 10
-145.506622
 20
-323.36717
 30
0.0
  0
INSERT
  5
9B
100
AcDbEntity
  8
0
 62
     7
100
AcDbBlockReference
  2
AI9-BLK13
 10
-115.223372
 20
-273.367035
 30
0.0
  0
SPLINE
  5
99
100
AcDbEntity
  8
0
 62
     7
100
AcDbSpline
210
0.0
220
0.0
230
1.0
 70
     8
 71
     3
 72
    11
 73
     7
 74
     0
 42
0.00000001
 43
0.00000001
 40
0.0
 40
0.0
 40
0.0
 40
0.0
 40
1.0
 40
1.0
 40
1.0
 40
2.0
 40
2.0
 40
2.0
 40
2.0
 10
-348.84881863064231
 20
-198.36722005208333
 30
0.0
 10
-367.83542887369788
 20
-201.99525010850692
 30
0.0
 10
-380.28583170572915
 20
-220.3279812282986
 30
0.0
 10
-376.65762939453123
 20
-239.31424696180554
 30
0.0
 10
-374.64293755425342
 20
-249.85761718749998
 30
0.0
 10
-367.90191921657981
 20
-258.89341362847222
 30
0.0
 10
-358.36934000651036
 20
-263.82782389322915
 30
0.0
  0
LINE
  5
98
100
AcDbEntity
  8
0
 62
     7
100
AcDbLine
 10
-258.529784
 20
606.053619
 30
0.0
 11
-193.529789
 21
476.05363
 31
0.0
  0
LINE
  5
97
100
AcDbEntity
  8
0
 62
     7
100
AcDbLine
 10
-848.529774
 20
606.053619
 30
0.0
 11
-913.529769
 21
476.05363
 31
0.0
  0
INSERT
  5
75
100
AcDbEntity
  8
0
  6
AI9-LTYPE1
 62
     7
100
AcDbBlockReference
  2
AI9-BLK9
 10
-182.057449
 20
541.053452
 30
0.0
  0
INSERT
  5
53
100
AcDbEntity
  8
0
  6
AI9-LTYPE1
 62
     7
100
AcDbBlockReference
  2
AI9-BLK5
 10
-182.057621
 20
791.053524
 30
0.0
  0
INSERT
  5
30
100
AcDbEntity
  8
0
 62
     7
100
AcDbBlockReference
  2
AI9-BLK1
 10
-153.874415
 20
1026.05365
 30
0.0
  0
POLYLINE
  5
29
100
AcDbEntity
  8
0
 62
     7
100
AcDb2dPolyline
 66
     1
 10
0.0
 20
0.0
 30
0.0
 70
     1
  0
VERTEX
  5
2A
100
AcDbEntity
  8
0
 62
     7
100
AcDbVertex
100
AcDb2dVertex
 10
-599.682776
 20
-52.37682
 30
0.0
  0
VERTEX
  5
2B
100
AcDbEntity
  8
0
 62
     7
100
AcDbVertex
100
AcDb2dVertex
 10
-506.181506
 20
-52.37682
 30
0.0
  0
VERTEX
  5
2C
100
AcDbEntity
  8
0
 62
     7
100
AcDbVertex
100
AcDb2dVertex
 10
-506.181506
 20
-73.398104
 30
0.0
  0
VERTEX
  5
2D
100
AcDbEntity
  8
0
 62
     7
100
AcDbVertex
100
AcDb2dVertex
 10
-599.682776
 20
-73.398104
 30
0.0
  0
SEQEND
  5
2E
100
AcDbEntity
  8
0
 62
     7
  0
ELLIPSE
  5
28
100
AcDbEntity
  8
0
 62
     7
100
AcDbEllipse
 10
-580.480761
 20
-87.531608
 30
0.0
 11
-8.1065680609809014
 21
0.0
 31
0.0
210
0.0
220
0.0
230
1.0
 40
0.713704
 41
0.0
 42
6.2831853071795862
  0
ELLIPSE
  5
27
100
AcDbEntity
  8
0
 62
     7
100
AcDbEllipse
 10
-560.480776
 20
-87.531608
 30
0.0
 11
-8.1065680609809014
 21
0.0
 31
0.0
210
0.0
220
0.0
230
1.0
 40
0.713704
 41
0.0
 42
6.2831853071795862
  0
ELLIPSE
  5
26
100
AcDbEntity
  8
0
 62
     7
100
AcDbEllipse
 10
-540.480705
 20
-87.531608
 30
0.0
 11
-8.1064819335937486
 21
0.0
 31
0.0
210
0.0
220
0.0
230
1.0
 40
0.713712
 41
0.0
 42
6.2831853071795862
  0
ELLIPSE
  5
25
100
AcDbEntity
  8
0
 62
     7
100
AcDbEllipse
 10
-520.480806
 20
-87.531608
 30
0.0
 11
-8.1065680609809014
 21
0.0
 31
0.0
210
0.0
220
0.0
230
1.0
 40
0.713704
 41
0.0
 42
6.2831853071795862
  0
LINE
  5
24
100
AcDbEntity
  8
0
 62
     7
100
AcDbLine
 10
-783.52978
 20
1076.053526
 30
0.0
 11
-783.52978
 21
976.053429
 31
0.0
  0
LINE
  5
23
100
AcDbEntity
  8
0
 62
     7
100
AcDbLine
 10
-323.529778
 20
1076.053526
 30
0.0
 11
-323.529778
 21
976.053429
 31
0.0
  0
ENDSEC
  0
SECTION
  2
OBJECTS
  0
DICTIONARY
  5
19
100
AcDbDictionary
  3
ACAD_GROUP
350
1A
  3
ACAD_MLINESTYLE
350
1B
  0
DICTIONARY
  5
1A
102
{ACAD_REACTORS
330
19
102
}
100
AcDbDictionary
  0
DICTIONARY
  5
1B
102
{ACAD_REACTORS
330
19
102
}
100
AcDbDictionary
  3
STANDARD
350
1C
  0
MLINESTYLE
  5
1C
102
{ACAD_REACTORS
330
1B
102
}
100
AcDbMlineStyle
  2
STANDARD
 70
     0
  3

 62
     0
 51
90.0
 52
90.0
 71
     2
 49
0.5
 62
   256
  6
BYLAYER
 49
-0.5
 62
   256
  6
BYLAYER
  0
ENDSEC
  0
EOF
