  0
SECTION
  2
HEADER
  9
$ACADVER
  1
AC1014
  9
$ACADMAINTVER
 70
     0
  9
$DWGCODEPAGE
  3
ANSI_932
  9
$INSBASE
 10
0.0
 20
0.0
 30
0.0
  9
$EXTMIN
 10
-1525.048687
 20
-1038.261174
 30
1.000000E+20
  9
$EXTMAX
 10
1733.893132
 20
1334.594679
 30
-1.000000E+20
  9
$LIMMIN
 10
-1525.048687
 20
-1038.261174
  9
$LIMMAX
 10
1733.893132
 20
1334.594679
  9
$ORTHOMODE
 70
     0
  9
$REGENMODE
 70
     1
  9
$FILLMODE
 70
     1
  9
$QTEXTMODE
 70
     0
  9
$MIRRTEXT
 70
     1
  9
$DRAGMODE
 70
     2
  9
$LTSCALE
 40
1.0
  9
$OSMODE
 70
     0
  9
$ATTMODE
 70
     1
  9
$TEXTSIZE
 40
0.2
  9
$TRACEWID
 40
0.05
  9
$TEXTSTYLE
  7
STANDARD
  9
$CLAYER
  8
0
  9
$CELTYPE
  6
CONTINUOUS
  9
$CECOLOR
 62
   256
  9
$CELTSCALE
 40
1.0
  9
$DELOBJ
 70
     1
  9
$DISPSILH
 70
     0
  9
$DIMSCALE
 40
1.0
  9
$DIMASZ
 40
0.18
  9
$DIMEXO
 40
0.0625
  9
$DIMDLI
 40
0.38
  9
$DIMRND
 40
0.0
  9
$DIMDLE
 40
0.0
  9
$DIMEXE
 40
0.18
  9
$DIMTP
 40
0.0
  9
$DIMTM
 40
0.0
  9
$DIMTXT
 40
0.18
  9
$DIMCEN
 40
0.09
  9
$DIMTSZ
 40
0.0
  9
$DIMTOL
 70
     0
  9
$DIMLIM
 70
     0
  9
$DIMTIH
 70
     1
  9
$DIMTOH
 70
     1
  9
$DIMSE1
 70
     0
  9
$DIMSE2
 70
     0
  9
$DIMTAD
 70
     0
  9
$DIMZIN
 70
     0
  9
$DIMBLK
  1

  9
$DIMASO
 70
     1
  9
$DIMSHO
 70
     1
  9
$DIMPOST
  1

  9
$DIMAPOST
  1

  9
$DIMALT
 70
     0
  9
$DIMALTD
 70
     2
  9
$DIMALTF
 40
25.4
  9
$DIMLFAC
 40
1.0
  9
$DIMTOFL
 70
     0
  9
$DIMTVP
 40
0.0
  9
$DIMTIX
 70
     0
  9
$DIMSOXD
 70
     0
  9
$DIMSAH
 70
     0
  9
$DIMBLK1
  1

  9
$DIMBLK2
  1

  9
$DIMSTYLE
  2
STANDARD
  9
$DIMCLRD
 70
     0
  9
$DIMCLRE
 70
     0
  9
$DIMCLRT
 70
     0
  9
$DIMTFAC
 40
1.0
  9
$DIMGAP
 40
0.09
  9
$DIMJUST
 70
     0
  9
$DIMSD1
 70
     0
  9
$DIMSD2
 70
     0
  9
$DIMTOLJ
 70
     1
  9
$DIMTZIN
 70
     0
  9
$DIMALTZ
 70
     0
  9
$DIMALTTZ
 70
     0
  9
$DIMFIT
 70
     3
  9
$DIMUPT
 70
     0
  9
$DIMUNIT
 70
     2
  9
$DIMDEC
 70
     4
  9
$DIMTDEC
 70
     4
  9
$DIMALTU
 70
     2
  9
$DIMALTTD
 70
     2
  9
$DIMTXSTY
  7
STANDARD
  9
$DIMAUNIT
 70
     0
  9
$LUNITS
 70
     2
  9
$LUPREC
 70
     4
  9
$SKETCHINC
 40
0.1
  9
$FILLETRAD
 40
0.0
  9
$AUNITS
 70
     0
  9
$AUPREC
 70
     0
  9
$MENU
  1
acad
  9
$ELEVATION
 40
0.0
  9
$PELEVATION
 40
0.0
  9
$THICKNESS
 40
0.0
  9
$LIMCHECK
 70
     0
  9
$BLIPMODE
 70
     1
  9
$CHAMFERA
 40
0.0
  9
$CHAMFERB
 40
0.0
  9
$CHAMFERC
 40
0.0
  9
$CHAMFERD
 40
0.0
  9
$SKPOLY
 70
     0
  9
$TDCREATE
 40
0.000000000
  9
$TDUPDATE
 40
0.000000000
  9
$TDINDWG
 40
0.0000000000
  9
$TDUSRTIMER
 40
0.0000000000
  9
$USRTIMER
 70
     1
  9
$ANGBASE
 50
0.0
  9
$ANGDIR
 70
     0
  9
$PDMODE
 70
     0
  9
$PDSIZE
 40
0.0
  9
$PLINEWID
 40
0.0
  9
$COORDS
 70
     0
  9
$SPLFRAME
 70
     0
  9
$SPLINETYPE
 70
     6
  9
$SPLINESEGS
 70
     8
  9
$ATTDIA
 70
     0
  9
$ATTREQ
 70
     1
  9
$HANDLING
 70
     1
  9
$HANDSEED
  5
6C2
  9
$SURFTAB1
 70
     6
  9
$SURFTAB2
 70
     6
  9
$SURFTYPE
 70
     6
  9
$SURFU
 70
     6
  9
$SURFV
 70
     6
  9
$UCSNAME
  2

  9
$UCSORG
 10
0.0
 20
0.0
 30
0.0
  9
$UCSXDIR
 10
1.0
 20
0.0
 30
0.0
  9
$UCSYDIR
 10
0.0
 20
1.0
 30
0.0
  9
$PUCSNAME
  2

  9
$PUCSORG
 10
0.0
 20
0.0
 30
0.0
  9
$PUCSXDIR
 10
1.0
 20
0.0
 30
0.0
  9
$PUCSYDIR
 10
0.0
 20
1.0
 30
0.0
  9
$USERI1
 70
     0
  9
$USERI2
 70
     0
  9
$USERI3
 70
     0
  9
$USERI4
 70
     0
  9
$USERI5
 70
     0
  9
$USERR1
 40
0.0
  9
$USERR2
 40
0.0
  9
$USERR3
 40
0.0
  9
$USERR4
 40
0.0
  9
$USERR5
 40
0.0
  9
$WORLDVIEW
 70
     1
  9
$SHADEDGE
 70
     3
  9
$SHADEDIF
 70
    70
  9
$TILEMODE
 70
     1
  9
$MAXACTVP
 70
    16
  9
$PINSBASE
 10
0.0
 20
0.0
 30
0.0
  9
$PLIMCHECK
 70
     0
  9
$PEXTMIN
 10
1.000000E+20
 20
1.000000E+20
 30
1.000000E+20
  9
$PEXTMAX
 10
-1.000000E+20
 20
-1.000000E+20
 30
-1.000000E+20
  9
$PLIMMIN
 10
0.0
 20
0.0
  9
$PLIMMAX
 10
12.0
 20
9.0
  9
$UNITMODE
 70
     0
  9
$VISRETAIN
 70
     0
  9
$PLINEGEN
 70
     1
  9
$PSLTSCALE
 70
     0
  9
$TREEDEPTH
 70
  3020
  9
$PICKSTYLE
 70
     1
  9
$CMLSTYLE
  2
STANDARD
  9
$CMLJUST
 70
     0
  9
$CMLSCALE
 40
1.0
  9
$PROXYGRAPHICS
 70
     0
  9
$MEASUREMENT
 70
     0
  0
ENDSEC
  0
SECTION
  2
CLASSES
  0
CLASS
  1
LWPOLYLINE
  2
AcDbPolyline
  3
"AutoCAD"
 90
        0
280
     0
281
     1
  0
CLASS
  1
IMAGE
  2
AcDbRasterImage
  3
ISM
 90
      127
280
     0
281
     1
  0
CLASS
  1
OLE2FRAME
  2
AcDbOle2Frame
  3
""
 90
        0
280
     0
281
     1
  0
CLASS
  1
HATCH
  2
AcDbHatch
  3
"ACAD_SEDONA"
 90
        0
280
     0
281
     1
  0
CLASS
  1
DICTIONARYVAR
  2
AcDbDictionaryVar
  3
"AutoCAD"
 90
        0
280
     0
281
     0
  0
CLASS
  1
RASTERVARIABLES
  2
AcDbRasterVariables
  3
ISM
 90
        0
280
     0
281
     0
  0
CLASS
  1
IMAGEDEF
  2
AcDbRasterImageDef
  3
ISM
 90
        0
280
     0
281
     0
  0
CLASS
  1
IMAGEDEF_REACTOR
  2
AcDbRasterImageDefReactor
  3
ISM
 90
        1
280
     0
281
     0
  0
CLASS
  1
IDBUFFER
  2
AcDbIdBuffer
  3
"Acad"
 90
        0
280
     0
281
     0
  0
CLASS
  1
SPATIAL_FILTER
  2
AcDbSpatialFilter
  3
"Acad"
 90
        0
280
     0
281
     0
  0
CLASS
  1
XRECORD
  2
AcDbXrecord
  3
"<Built In>"
 90
        0
280
     0
281
     0
  0
CLASS
  1
SORTENTSTABLE
  2
AcDbSortentsTable
  3
"AutoCAD"
 90
        0
280
     0
281
     0
  0
CLASS
  1
LAYER_INDEX
  2
AcDbLayerIndex
  3
"Acad"
 90
        0
280
     0
281
     0
  0
CLASS
  1
SPATIAL_INDEX
  2
AcDbSpatialIndex
  3
"Acad"
 90
        0
280
     0
281
     0
  0
CLASS
  1
OBJECT_PTR
  2
CAseDLPNTableRecord
  3
"ASE-LPNTableRecord"
 90
        1
280
     0
281
     0
  0
CLASS
  1
LAYOUT
  2
AcDbLayout
  3
"AutoCAD 2000"
 90
        1
280
     0
281
     0
  0
CLASS
  1
PLOTSETTINGS
  2
AcDbPlotSettings
  3
"AutoCAD 2000"
 90
        1
280
     0
281
     0
  0
CLASS
  1
ACDBDICTIONARYWDFLT
  2
AcDbDictionaryWithDefault
  3
"AutoCAD 2000"
 90
        1
280
     0
281
     0
  0
CLASS
  1
ACDBPLACEHOLDER
  2
AcDbPlaceHolder
  3
"AutoCAD 2000"
 90
        1
280
     0
281
     0
  0
CLASS
  1
VBA_PROJECT
  2
AcDbVbaProject
  3
"acadvba"
 90
        1
280
     0
281
     0
  0
CLASS
  1
WIPEOUT
  2
AcDbWipeout
  3
WipeOut|AutoCAD Express Tool|expresstools@autodesk.com
 90
      127
280
     0
281
     1
  0
CLASS
  1
WIPEOUTVARIABLES
  2
AcDbWipeoutVariables
  3
WipeOut|AutoCAD Express Tool|expresstools@autodesk.com
 90
        0
280
     0
281
     0
  0
CLASS
  1
RTEXT
  2
RText
  3
RText|AutoCAD Express Tool|expresstools@autodesk.com
 90
        0
280
     0
281
     1
  0
CLASS
  1
ARCALIGNEDTEXT
  2
AcDbArcAlignedText
  3
ATEXT|AutoCAD Express Tool|expresstools@autodesk.com
 90
        0
280
     0
281
     1
  0
ENDSEC
  0
SECTION
  2
TABLES
  0
TABLE
  2
VPORT
  5
7
100
AcDbSymbolTable
 70
     1
  0
VPORT
  5
15
100
AcDbSymbolTableRecord
100
AcDbViewportTableRecord
  2
*ACTIVE
 70
     0
 10
0.0
 20
0.0
 11
1.0
 21
1.0
 12
6.591288
 22
4.579184
 13
0.0
 23
0.0
 14
1.0
 24
1.0
 15
0.0
 25
0.0
 16
0.0
 26
0.0
 36
1.0
 17
0.0
 27
0.0
 37
0.0
 40
9.158369
 41
0.688564
 42
50.0
 43
0.0
 44
0.0
 50
0.0
 51
0.0
 71
     0
 72
   100
 73
     1
 74
     1
 75
     0
 76
     0
 77
     0
 78
     0
  0
ENDTAB
  0
TABLE
  2
LTYPE
  5
4
100
AcDbSymbolTable
 70
     5
  0
LTYPE
  5
11
100
AcDbSymbolTableRecord
100
AcDbLinetypeTableRecord
  2
BYBLOCK
 70
    64
  3

 72
    65
 73
     0
 40
0.0
  0
LTYPE
  5
12
100
AcDbSymbolTableRecord
100
AcDbLinetypeTableRecord
  2
BYLAYER
 70
    64
  3

 72
    65
 73
     0
 40
0.0
  0
LTYPE
  5
13
100
AcDbSymbolTableRecord
100
AcDbLinetypeTableRecord
  2
CONTINUOUS
 70
    64
  3
Solid line
 72
    65
 73
     0
 40
0.0
  0
LTYPE
  5
39
100
AcDbSymbolTableRecord
100
AcDbLinetypeTableRecord
  2
AI9-LTYPE1
 70
    64
  3
Illustrator Dash Style No.1
 72
    65
 73
     2
 40
32.070709
 49
21.380473
 74
     0
 49
-10.690236
 74
     0
  0
LTYPE
  5
8E
100
AcDbSymbolTableRecord
100
AcDbLinetypeTableRecord
  2
AI9-LTYPE2
 70
    64
  3
Illustrator Dash Style No.2
 72
    65
 73
     2
 40
16.035354
 49
10.690236
 74
     0
 49
-5.345118
 74
     0
  0
ENDTAB
  0
TABLE
  2
LAYER
  5
2
100
AcDbSymbolTable
 70
     6
  0
LAYER
  5
14
100
AcDbSymbolTableRecord
100
AcDbLayerTableRecord
  2
0
 70
     0
 62
     7
  6
CONTINUOUS
  0
LAYER
  5
21
100
AcDbSymbolTableRecord
100
AcDbLayerTableRecord
  2
レイヤー_1
 70
     0
 62
   160
  6
CONTINUOUS
  0
LAYER
  5
22
100
AcDbSymbolTableRecord
100
AcDbLayerTableRecord
  2
0
 70
     0
 62
     7
  6
CONTINUOUS
  0
LAYER
  5
23
100
AcDbSymbolTableRecord
100
AcDbLayerTableRecord
  2
レイヤー_1_0
 70
     0
 62
   160
  6
CONTINUOUS
  0
LAYER
  5
24
100
AcDbSymbolTableRecord
100
AcDbLayerTableRecord
  2
0_0
 70
     0
 62
     7
  6
CONTINUOUS
  0
LAYER
  5
6C1
100
AcDbSymbolTableRecord
100
AcDbLayerTableRecord
  2
DEFPOINTS
 70
     0
 62
     7
  6
CONTINUOUS
  0
ENDTAB
  0
TABLE
  2
STYLE
  5
3
100
AcDbSymbolTable
 70
     5
  0
STYLE
  5
17
100
AcDbSymbolTableRecord
100
AcDbTextStyleTableRecord
  2
STANDARD
 70
     0
 40
0.0
 41
1.0
 50
0.0
 71
     0
 42
0.0
  3
txt
  4

  0
STYLE
  5
1D
100
AcDbSymbolTableRecord
100
AcDbTextStyleTableRecord
  2
STD
 70
     0
 40
0.0
 41
1.0
 50
0.0
 71
     0
 42
0.0
  3
txt
  4

  0
STYLE
  5
1E
100
AcDbSymbolTableRecord
100
AcDbTextStyleTableRecord
  2
TATESTD
 70
     4
 40
0.0
 41
1.0
 50
0.0
 71
     0
 42
0.0
  3
txt
  4

  0
STYLE
  5
1F
100
AcDbSymbolTableRecord
100
AcDbTextStyleTableRecord
  2
KANJISTD
 70
     0
 40
0.0
 41
1.0
 50
0.0
 71
     0
 42
0.0
  3
txt
  4
extfont
  0
STYLE
  5
20
100
AcDbSymbolTableRecord
100
AcDbTextStyleTableRecord
  2
KANJITATE
 70
     4
 40
0.0
 41
1.0
 50
0.0
 71
     0
 42
0.0
  3
txt
  4
extfont
  0
ENDTAB
  0
TABLE
  2
VIEW
  5
5
100
AcDbSymbolTable
 70
     0
  0
ENDTAB
  0
TABLE
  2
UCS
  5
6
100
AcDbSymbolTable
 70
     0
  0
ENDTAB
  0
TABLE
  2
APPID
  5
8
100
AcDbSymbolTable
 70
     1
  0
APPID
  5
16
100
AcDbSymbolTableRecord
100
AcDbRegAppTableRecord
  2
ACAD
 70
     0
  0
ENDTAB
  0
TABLE
  2
DIMSTYLE
  5
9
100
AcDbSymbolTable
 70
     1
  0
DIMSTYLE
105
18
100
AcDbSymbolTableRecord
100
AcDbDimStyleTableRecord
  2
STANDARD
 70
     0
  3

  4

  5

  6

  7

 40
1.0
 41
0.18
 42
0.0625
 43
0.38
 44
0.18
 45
0.0
 46
0.0
 47
0.0
 48
0.0
 71
     0
 72
     0
 73
     1
 74
     1
 75
     0
 76
     0
 77
     0
 78
     0
140
0.18
141
0.09
142
0.0
143
25.4
144
1.0
145
0.0
146
1.0
147
0.09
170
     0
171
     2
172
     0
173
     0
174
     0
175
     0
176
     0
177
     0
178
     0
270
     2
271
     4
272
     4
273
     2
274
     2
275
     0
280
     0
281
     0
282
     0
283
     1
284
     0
285
     0
286
     0
287
     0
288
     0
340
17
  0
ENDTAB
  0
TABLE
  2
BLOCK_RECORD
  5
1
100
AcDbSymbolTable
 70
   131
  0
BLOCK_RECORD
  5
A
100
AcDbSymbolTableRecord
100
AcDbBlockTableRecord
  2
*MODEL_SPACE
  0
BLOCK_RECORD
  5
B
100
AcDbSymbolTableRecord
100
AcDbBlockTableRecord
  2
*PAPER_SPACE
  0
BLOCK_RECORD
  5
25
100
AcDbSymbolTableRecord
100
AcDbBlockTableRecord
  2
AI9-BLK1
  0
BLOCK_RECORD
  5
28
100
AcDbSymbolTableRecord
100
AcDbBlockTableRecord
  2
AI9-BLK2
  0
BLOCK_RECORD
  5
2D
100
AcDbSymbolTableRecord
100
AcDbBlockTableRecord
  2
AI9-BLK3
  0
BLOCK_RECORD
  5
32
100
AcDbSymbolTableRecord
100
AcDbBlockTableRecord
  2
AI9-BLK4
  0
BLOCK_RECORD
  5
49
100
AcDbSymbolTableRecord
100
AcDbBlockTableRecord
  2
AI9-BLK5
  0
BLOCK_RECORD
  5
4C
100
AcDbSymbolTableRecord
100
AcDbBlockTableRecord
  2
AI9-BLK6
  0
BLOCK_RECORD
  5
51
100
AcDbSymbolTableRecord
100
AcDbBlockTableRecord
  2
AI9-BLK7
  0
BLOCK_RECORD
  5
56
100
AcDbSymbolTableRecord
100
AcDbBlockTableRecord
  2
AI9-BLK8
  0
BLOCK_RECORD
  5
6B
100
AcDbSymbolTableRecord
100
AcDbBlockTableRecord
  2
AI9-BLK9
  0
BLOCK_RECORD
  5
6E
100
AcDbSymbolTableRecord
100
AcDbBlockTableRecord
  2
AI9-BLK10
  0
BLOCK_RECORD
  5
73
100
AcDbSymbolTableRecord
100
AcDbBlockTableRecord
  2
AI9-BLK11
  0
BLOCK_RECORD
  5
78
100
AcDbSymbolTableRecord
100
AcDbBlockTableRecord
  2
AI9-BLK12
  0
BLOCK_RECORD
  5
93
100
AcDbSymbolTableRecord
100
AcDbBlockTableRecord
  2
AI9-BLK13
  0
BLOCK_RECORD
  5
96
100
AcDbSymbolTableRecord
100
AcDbBlockTableRecord
  2
AI9-BLK14
  0
BLOCK_RECORD
  5
9B
100
AcDbSymbolTableRecord
100
AcDbBlockTableRecord
  2
AI9-BLK15
  0
BLOCK_RECORD
  5
A0
100
AcDbSymbolTableRecord
100
AcDbBlockTableRecord
  2
AI9-BLK16
  0
BLOCK_RECORD
  5
B6
100
AcDbSymbolTableRecord
100
AcDbBlockTableRecord
  2
AI9-BLK17
  0
BLOCK_RECORD
  5
B9
100
AcDbSymbolTableRecord
100
AcDbBlockTableRecord
  2
AI9-BLK18
  0
BLOCK_RECORD
  5
BE
100
AcDbSymbolTableRecord
100
AcDbBlockTableRecord
  2
AI9-BLK19
  0
BLOCK_RECORD
  5
C3
100
AcDbSymbolTableRecord
100
AcDbBlockTableRecord
  2
AI9-BLK20
  0
BLOCK_RECORD
  5
D8
100
AcDbSymbolTableRecord
100
AcDbBlockTableRecord
  2
AI9-BLK21
  0
BLOCK_RECORD
  5
DB
100
AcDbSymbolTableRecord
100
AcDbBlockTableRecord
  2
AI9-BLK22
  0
BLOCK_RECORD
  5
E0
100
AcDbSymbolTableRecord
100
AcDbBlockTableRecord
  2
AI9-BLK23
  0
BLOCK_RECORD
  5
E5
100
AcDbSymbolTableRecord
100
AcDbBlockTableRecord
  2
AI9-BLK24
  0
BLOCK_RECORD
  5
FA
100
AcDbSymbolTableRecord
100
AcDbBlockTableRecord
  2
AI9-BLK25
  0
BLOCK_RECORD
  5
FD
100
AcDbSymbolTableRecord
100
AcDbBlockTableRecord
  2
AI9-BLK26
  0
BLOCK_RECORD
  5
102
100
AcDbSymbolTableRecord
100
AcDbBlockTableRecord
  2
AI9-BLK27
  0
BLOCK_RECORD
  5
107
100
AcDbSymbolTableRecord
100
AcDbBlockTableRecord
  2
AI9-BLK28
  0
BLOCK_RECORD
  5
11C
100
AcDbSymbolTableRecord
100
AcDbBlockTableRecord
  2
AI9-BLK29
  0
BLOCK_RECORD
  5
11F
100
AcDbSymbolTableRecord
100
AcDbBlockTableRecord
  2
AI9-BLK30
  0
BLOCK_RECORD
  5
124
100
AcDbSymbolTableRecord
100
AcDbBlockTableRecord
  2
AI9-BLK31
  0
BLOCK_RECORD
  5
129
100
AcDbSymbolTableRecord
100
AcDbBlockTableRecord
  2
AI9-BLK32
  0
BLOCK_RECORD
  5
13E
100
AcDbSymbolTableRecord
100
AcDbBlockTableRecord
  2
AI9-BLK33
  0
BLOCK_RECORD
  5
141
100
AcDbSymbolTableRecord
100
AcDbBlockTableRecord
  2
AI9-BLK34
  0
BLOCK_RECORD
  5
146
100
AcDbSymbolTableRecord
100
AcDbBlockTableRecord
  2
AI9-BLK35
  0
BLOCK_RECORD
  5
14B
100
AcDbSymbolTableRecord
100
AcDbBlockTableRecord
  2
AI9-BLK36
  0
BLOCK_RECORD
  5
161
100
AcDbSymbolTableRecord
100
AcDbBlockTableRecord
  2
AI9-BLK37
  0
BLOCK_RECORD
  5
164
100
AcDbSymbolTableRecord
100
AcDbBlockTableRecord
  2
AI9-BLK38
  0
BLOCK_RECORD
  5
169
100
AcDbSymbolTableRecord
100
AcDbBlockTableRecord
  2
AI9-BLK39
  0
BLOCK_RECORD
  5
16E
100
AcDbSymbolTableRecord
100
AcDbBlockTableRecord
  2
AI9-BLK40
  0
BLOCK_RECORD
  5
18E
100
AcDbSymbolTableRecord
100
AcDbBlockTableRecord
  2
AI9-BLK41
  0
BLOCK_RECORD
  5
191
100
AcDbSymbolTableRecord
100
AcDbBlockTableRecord
  2
AI9-BLK42
  0
BLOCK_RECORD
  5
19C
100
AcDbSymbolTableRecord
100
AcDbBlockTableRecord
  2
AI9-BLK43
  0
BLOCK_RECORD
  5
1C1
100
AcDbSymbolTableRecord
100
AcDbBlockTableRecord
  2
AI9-BLK44
  0
BLOCK_RECORD
  5
1C4
100
AcDbSymbolTableRecord
100
AcDbBlockTableRecord
  2
AI9-BLK45
  0
BLOCK_RECORD
  5
1C9
100
AcDbSymbolTableRecord
100
AcDbBlockTableRecord
  2
AI9-BLK46
  0
BLOCK_RECORD
  5
1CE
100
AcDbSymbolTableRecord
100
AcDbBlockTableRecord
  2
AI9-BLK47
  0
BLOCK_RECORD
  5
1E5
100
AcDbSymbolTableRecord
100
AcDbBlockTableRecord
  2
AI9-BLK48
  0
BLOCK_RECORD
  5
1E8
100
AcDbSymbolTableRecord
100
AcDbBlockTableRecord
  2
AI9-BLK49
  0
BLOCK_RECORD
  5
1ED
100
AcDbSymbolTableRecord
100
AcDbBlockTableRecord
  2
AI9-BLK50
  0
BLOCK_RECORD
  5
1F2
100
AcDbSymbolTableRecord
100
AcDbBlockTableRecord
  2
AI9-BLK51
  0
BLOCK_RECORD
  5
25A
100
AcDbSymbolTableRecord
100
AcDbBlockTableRecord
  2
AI9-BLK52
  0
BLOCK_RECORD
  5
27E
100
AcDbSymbolTableRecord
100
AcDbBlockTableRecord
  2
AI9-BLK53
  0
BLOCK_RECORD
  5
28A
100
AcDbSymbolTableRecord
100
AcDbBlockTableRecord
  2
AI9-BLK54
  0
BLOCK_RECORD
  5
298
100
AcDbSymbolTableRecord
100
AcDbBlockTableRecord
  2
AI9-BLK55
  0
BLOCK_RECORD
  5
29D
100
AcDbSymbolTableRecord
100
AcDbBlockTableRecord
  2
AI9-BLK56
  0
BLOCK_RECORD
  5
2BA
100
AcDbSymbolTableRecord
100
AcDbBlockTableRecord
  2
AI9-BLK57
  0
BLOCK_RECORD
  5
2BD
100
AcDbSymbolTableRecord
100
AcDbBlockTableRecord
  2
AI9-BLK58
  0
BLOCK_RECORD
  5
2C2
100
AcDbSymbolTableRecord
100
AcDbBlockTableRecord
  2
AI9-BLK59
  0
BLOCK_RECORD
  5
2C7
100
AcDbSymbolTableRecord
100
AcDbBlockTableRecord
  2
AI9-BLK60
  0
BLOCK_RECORD
  5
2EF
100
AcDbSymbolTableRecord
100
AcDbBlockTableRecord
  2
AI9-BLK61
  0
BLOCK_RECORD
  5
2FC
100
AcDbSymbolTableRecord
100
AcDbBlockTableRecord
  2
AI9-BLK62
  0
BLOCK_RECORD
  5
2FF
100
AcDbSymbolTableRecord
100
AcDbBlockTableRecord
  2
AI9-BLK63
  0
BLOCK_RECORD
  5
304
100
AcDbSymbolTableRecord
100
AcDbBlockTableRecord
  2
AI9-BLK64
  0
BLOCK_RECORD
  5
309
100
AcDbSymbolTableRecord
100
AcDbBlockTableRecord
  2
AI9-BLK65
  0
BLOCK_RECORD
  5
331
100
AcDbSymbolTableRecord
100
AcDbBlockTableRecord
  2
AI9-BLK66
  0
BLOCK_RECORD
  5
334
100
AcDbSymbolTableRecord
100
AcDbBlockTableRecord
  2
AI9-BLK67
  0
BLOCK_RECORD
  5
339
100
AcDbSymbolTableRecord
100
AcDbBlockTableRecord
  2
AI9-BLK68
  0
BLOCK_RECORD
  5
33E
100
AcDbSymbolTableRecord
100
AcDbBlockTableRecord
  2
AI9-BLK69
  0
BLOCK_RECORD
  5
360
100
AcDbSymbolTableRecord
100
AcDbBlockTableRecord
  2
AI9-BLK70
  0
BLOCK_RECORD
  5
363
100
AcDbSymbolTableRecord
100
AcDbBlockTableRecord
  2
AI9-BLK71
  0
BLOCK_RECORD
  5
368
100
AcDbSymbolTableRecord
100
AcDbBlockTableRecord
  2
AI9-BLK72
  0
BLOCK_RECORD
  5
36D
100
AcDbSymbolTableRecord
100
AcDbBlockTableRecord
  2
AI9-BLK73
  0
BLOCK_RECORD
  5
384
100
AcDbSymbolTableRecord
100
AcDbBlockTableRecord
  2
AI9-BLK74
  0
BLOCK_RECORD
  5
387
100
AcDbSymbolTableRecord
100
AcDbBlockTableRecord
  2
AI9-BLK75
  0
BLOCK_RECORD
  5
38C
100
AcDbSymbolTableRecord
100
AcDbBlockTableRecord
  2
AI9-BLK76
  0
BLOCK_RECORD
  5
391
100
AcDbSymbolTableRecord
100
AcDbBlockTableRecord
  2
AI9-BLK77
  0
BLOCK_RECORD
  5
3C0
100
AcDbSymbolTableRecord
100
AcDbBlockTableRecord
  2
AI9-BLK78
  0
BLOCK_RECORD
  5
3C3
100
AcDbSymbolTableRecord
100
AcDbBlockTableRecord
  2
AI9-BLK79
  0
BLOCK_RECORD
  5
3C8
100
AcDbSymbolTableRecord
100
AcDbBlockTableRecord
  2
AI9-BLK80
  0
BLOCK_RECORD
  5
3CD
100
AcDbSymbolTableRecord
100
AcDbBlockTableRecord
  2
AI9-BLK81
  0
BLOCK_RECORD
  5
3E3
100
AcDbSymbolTableRecord
100
AcDbBlockTableRecord
  2
AI9-BLK82
  0
BLOCK_RECORD
  5
3E6
100
AcDbSymbolTableRecord
100
AcDbBlockTableRecord
  2
AI9-BLK83
  0
BLOCK_RECORD
  5
3EB
100
AcDbSymbolTableRecord
100
AcDbBlockTableRecord
  2
AI9-BLK84
  0
BLOCK_RECORD
  5
3F0
100
AcDbSymbolTableRecord
100
AcDbBlockTableRecord
  2
AI9-BLK85
  0
BLOCK_RECORD
  5
406
100
AcDbSymbolTableRecord
100
AcDbBlockTableRecord
  2
AI9-BLK86
  0
BLOCK_RECORD
  5
409
100
AcDbSymbolTableRecord
100
AcDbBlockTableRecord
  2
AI9-BLK87
  0
BLOCK_RECORD
  5
40E
100
AcDbSymbolTableRecord
100
AcDbBlockTableRecord
  2
AI9-BLK88
  0
BLOCK_RECORD
  5
413
100
AcDbSymbolTableRecord
100
AcDbBlockTableRecord
  2
AI9-BLK89
  0
BLOCK_RECORD
  5
42B
100
AcDbSymbolTableRecord
100
AcDbBlockTableRecord
  2
AI9-BLK90
  0
BLOCK_RECORD
  5
437
100
AcDbSymbolTableRecord
100
AcDbBlockTableRecord
  2
AI9-BLK91
  0
BLOCK_RECORD
  5
444
100
AcDbSymbolTableRecord
100
AcDbBlockTableRecord
  2
AI9-BLK92
  0
BLOCK_RECORD
  5
450
100
AcDbSymbolTableRecord
100
AcDbBlockTableRecord
  2
AI9-BLK93
  0
BLOCK_RECORD
  5
45C
100
AcDbSymbolTableRecord
100
AcDbBlockTableRecord
  2
AI9-BLK94
  0
BLOCK_RECORD
  5
468
100
AcDbSymbolTableRecord
100
AcDbBlockTableRecord
  2
AI9-BLK95
  0
BLOCK_RECORD
  5
474
100
AcDbSymbolTableRecord
100
AcDbBlockTableRecord
  2
AI9-BLK96
  0
BLOCK_RECORD
  5
4E4
100
AcDbSymbolTableRecord
100
AcDbBlockTableRecord
  2
AI9-BLK97
  0
BLOCK_RECORD
  5
4E7
100
AcDbSymbolTableRecord
100
AcDbBlockTableRecord
  2
AI9-BLK98
  0
BLOCK_RECORD
  5
4EC
100
AcDbSymbolTableRecord
100
AcDbBlockTableRecord
  2
AI9-BLK99
  0
BLOCK_RECORD
  5
4F1
100
AcDbSymbolTableRecord
100
AcDbBlockTableRecord
  2
AI9-BLK100
  0
BLOCK_RECORD
  5
507
100
AcDbSymbolTableRecord
100
AcDbBlockTableRecord
  2
AI9-BLK101
  0
BLOCK_RECORD
  5
50A
100
AcDbSymbolTableRecord
100
AcDbBlockTableRecord
  2
AI9-BLK102
  0
BLOCK_RECORD
  5
50F
100
AcDbSymbolTableRecord
100
AcDbBlockTableRecord
  2
AI9-BLK103
  0
BLOCK_RECORD
  5
514
100
AcDbSymbolTableRecord
100
AcDbBlockTableRecord
  2
AI9-BLK104
  0
BLOCK_RECORD
  5
52A
100
AcDbSymbolTableRecord
100
AcDbBlockTableRecord
  2
AI9-BLK105
  0
BLOCK_RECORD
  5
52D
100
AcDbSymbolTableRecord
100
AcDbBlockTableRecord
  2
AI9-BLK106
  0
BLOCK_RECORD
  5
532
100
AcDbSymbolTableRecord
100
AcDbBlockTableRecord
  2
AI9-BLK107
  0
BLOCK_RECORD
  5
537
100
AcDbSymbolTableRecord
100
AcDbBlockTableRecord
  2
AI9-BLK108
  0
BLOCK_RECORD
  5
557
100
AcDbSymbolTableRecord
100
AcDbBlockTableRecord
  2
AI9-BLK109
  0
BLOCK_RECORD
  5
55A
100
AcDbSymbolTableRecord
100
AcDbBlockTableRecord
  2
AI9-BLK110
  0
BLOCK_RECORD
  5
55F
100
AcDbSymbolTableRecord
100
AcDbBlockTableRecord
  2
AI9-BLK111
  0
BLOCK_RECORD
  5
564
100
AcDbSymbolTableRecord
100
AcDbBlockTableRecord
  2
AI9-BLK112
  0
BLOCK_RECORD
  5
57A
100
AcDbSymbolTableRecord
100
AcDbBlockTableRecord
  2
AI9-BLK113
  0
BLOCK_RECORD
  5
57D
100
AcDbSymbolTableRecord
100
AcDbBlockTableRecord
  2
AI9-BLK114
  0
BLOCK_RECORD
  5
582
100
AcDbSymbolTableRecord
100
AcDbBlockTableRecord
  2
AI9-BLK115
  0
BLOCK_RECORD
  5
587
100
AcDbSymbolTableRecord
100
AcDbBlockTableRecord
  2
AI9-BLK116
  0
BLOCK_RECORD
  5
59D
100
AcDbSymbolTableRecord
100
AcDbBlockTableRecord
  2
AI9-BLK117
  0
BLOCK_RECORD
  5
5A2
100
AcDbSymbolTableRecord
100
AcDbBlockTableRecord
  2
AI9-BLK118
  0
BLOCK_RECORD
  5
5BF
100
AcDbSymbolTableRecord
100
AcDbBlockTableRecord
  2
AI9-BLK119
  0
BLOCK_RECORD
  5
5D8
100
AcDbSymbolTableRecord
100
AcDbBlockTableRecord
  2
AI9-BLK120
  0
BLOCK_RECORD
  5
5DB
100
AcDbSymbolTableRecord
100
AcDbBlockTableRecord
  2
AI9-BLK121
  0
BLOCK_RECORD
  5
5E0
100
AcDbSymbolTableRecord
100
AcDbBlockTableRecord
  2
AI9-BLK122
  0
BLOCK_RECORD
  5
5E5
100
AcDbSymbolTableRecord
100
AcDbBlockTableRecord
  2
AI9-BLK123
  0
BLOCK_RECORD
  5
61E
100
AcDbSymbolTableRecord
100
AcDbBlockTableRecord
  2
AI9-BLK124
  0
BLOCK_RECORD
  5
629
100
AcDbSymbolTableRecord
100
AcDbBlockTableRecord
  2
AI9-BLK125
  0
BLOCK_RECORD
  5
62C
100
AcDbSymbolTableRecord
100
AcDbBlockTableRecord
  2
AI9-BLK126
  0
BLOCK_RECORD
  5
631
100
AcDbSymbolTableRecord
100
AcDbBlockTableRecord
  2
AI9-BLK127
  0
BLOCK_RECORD
  5
636
100
AcDbSymbolTableRecord
100
AcDbBlockTableRecord
  2
AI9-BLK128
  0
BLOCK_RECORD
  5
656
100
AcDbSymbolTableRecord
100
AcDbBlockTableRecord
  2
AI9-BLK129
  0
BLOCK_RECORD
  5
664
100
AcDbSymbolTableRecord
100
AcDbBlockTableRecord
  2
AI9-BLK130
  0
BLOCK_RECORD
  5
685
100
AcDbSymbolTableRecord
100
AcDbBlockTableRecord
  2
AI9-BLK131
  0
ENDTAB
  0
ENDSEC
  0
SECTION
  2
BLOCKS
  0
BLOCK
  5
D
100
AcDbEntity
  8
0
100
AcDbBlockBegin
  2
*MODEL_SPACE
 70
     0
 10
0.0
 20
0.0
 30
0.0
  3
*MODEL_SPACE
  1

  0
ENDBLK
  5
E
100
AcDbEntity
  8
0
100
AcDbBlockEnd
  0
BLOCK
  5
F
100
AcDbEntity
 67
     1
  8
0
100
AcDbBlockBegin
  2
*PAPER_SPACE
 70
     0
 10
0.0
 20
0.0
 30
0.0
  3
*PAPER_SPACE
  1

  0
ENDBLK
  5
10
100
AcDbEntity
 67
     1
  8
0
100
AcDbBlockEnd
  0
BLOCK
  5
27
100
AcDbEntity
  8
0_0
 62
     7
100
AcDbBlockBegin
  2
AI9-BLK1
 70
     0
 10
0.0
 20
0.0
 30
0.0
  3
AI9-BLK1
  1

  0
LINE
  5
47
100
AcDbEntity
  8
0_0
  6
AI9-LTYPE1
 62
     7
100
AcDbLine
 10
-16.991211
 20
34.999931
 30
0.0
 11
17.446653
 21
34.999931
 31
0.0
  0
LINE
  5
46
100
AcDbEntity
  8
0_0
  6
AI9-LTYPE1
 62
     7
100
AcDbLine
 10
-16.991211
 20
-34.999931
 30
0.0
 11
17.446653
 21
-34.999931
 31
0.0
  0
LINE
  5
45
100
AcDbEntity
  8
0_0
  6
AI9-LTYPE1
 62
     7
100
AcDbLine
 10
13.238124
 20
26.582529
 30
0.0
 11
13.238124
 21
-26.582529
 31
0.0
  0
POLYLINE
  5
40
100
AcDbEntity
  8
0_0
  6
AI9-LTYPE1
 62
     7
100
AcDb2dPolyline
 66
     1
 10
0.0
 20
0.0
 30
0.0
 70
     1
  0
VERTEX
  5
41
100
AcDbEntity
  8
0_0
  6
AI9-LTYPE1
 62
     7
100
AcDbVertex
100
AcDb2dVertex
 10
11.835281
 20
26.582529
 30
0.0
  0
VERTEX
  5
42
100
AcDbEntity
  8
0_0
  6
AI9-LTYPE1
 62
     7
100
AcDbVertex
100
AcDb2dVertex
 10
14.640967
 20
26.582529
 30
0.0
  0
VERTEX
  5
43
100
AcDbEntity
  8
0_0
  6
AI9-LTYPE1
 62
     7
100
AcDbVertex
100
AcDb2dVertex
 10
13.238124
 20
34.999931
 30
0.0
  0
SEQEND
  5
44
100
AcDbEntity
  8
0_0
  6
AI9-LTYPE1
 62
     7
  0
HATCH
  5
3F
100
AcDbEntity
  8
0_0
 62
     7
100
AcDbHatch
 10
0.0
 20
0.0
 30
0.0
210
0.0
220
0.0
230
1.0
  2
SOLID
 70
     1
 71
     0
 91
        1
 92
        3
 72
     0
 73
     1
 93
        3
 10
13.238123914930554
 20
34.999930826822911
 10
14.640966796874999
 20
26.582529025607638
 10
11.83528103298611
 20
26.582529025607638
 97
        0
 75
     0
 76
     1
 98
        1
 10
0.0
 20
0.0
  0
POLYLINE
  5
3A
100
AcDbEntity
  8
0_0
  6
AI9-LTYPE1
 62
     7
100
AcDb2dPolyline
 66
     1
 10
0.0
 20
0.0
 30
0.0
 70
     1
  0
VERTEX
  5
3B
100
AcDbEntity
  8
0_0
  6
AI9-LTYPE1
 62
     7
100
AcDbVertex
100
AcDb2dVertex
 10
11.835281
 20
-26.582529
 30
0.0
  0
VERTEX
  5
3C
100
AcDbEntity
  8
0_0
  6
AI9-LTYPE1
 62
     7
100
AcDbVertex
100
AcDb2dVertex
 10
14.640967
 20
-26.582529
 30
0.0
  0
VERTEX
  5
3D
100
AcDbEntity
  8
0_0
  6
AI9-LTYPE1
 62
     7
100
AcDbVertex
100
AcDb2dVertex
 10
13.238124
 20
-34.999931
 30
0.0
  0
SEQEND
  5
3E
100
AcDbEntity
  8
0_0
  6
AI9-LTYPE1
 62
     7
  0
HATCH
  5
38
100
AcDbEntity
  8
0_0
 62
     7
100
AcDbHatch
 10
0.0
 20
0.0
 30
0.0
210
0.0
220
0.0
230
1.0
  2
SOLID
 70
     1
 71
     0
 91
        1
 92
        3
 72
     0
 73
     1
 93
        3
 10
11.83528103298611
 20
-26.582529025607638
 10
14.640966796874999
 20
-26.582529025607638
 10
13.238123914930554
 20
-34.999930826822911
 97
        0
 75
     0
 76
     1
 98
        1
 10
0.0
 20
0.0
  0
MTEXT
  5
37
100
AcDbEntity
  8
0_0
 62
     7
100
AcDbMText
 10
-7.506016
 20
-9.679513
 30
0.0
 40
20.0
 41
0.0
 71
     1
 72
     2
  1
\fTxt|b0|i0;7
  7
STD
210
0.0
220
0.0
230
1.0
 11
0.0
 21
1.0
 31
0.0
  0
INSERT
  5
33
100
AcDbEntity
  8
0_0
 62
     7
100
AcDbBlockReference
  2
AI9-BLK4
 10
-19.095475
 20
34.999931
 30
0.0
  0
INSERT
  5
2E
100
AcDbEntity
  8
0_0
 62
     7
100
AcDbBlockReference
  2
AI9-BLK3
 10
-19.095475
 20
-34.999931
 30
0.0
  0
INSERT
  5
29
100
AcDbEntity
  8
0_0
 62
     7
100
AcDbBlockReference
  2
AI9-BLK2
 10
13.238124
 20
-34.999759
 30
0.0
  0
ENDBLK
  5
48
100
AcDbEntity
  8
0_0
100
AcDbBlockEnd
  0
BLOCK
  5
2A
100
AcDbEntity
  8
0_0
 62
     7
100
AcDbBlockBegin
  2
AI9-BLK2
 70
     0
 10
0.0
 20
0.0
 30
0.0
  3
AI9-BLK2
  1

  0
CIRCLE
  5
2B
100
AcDbEntity
  8
0_0
 62
     7
100
AcDbCircle
 10
0.0
 20
-0.000172
 30
0.0
 40
0.03514
  0
ENDBLK
  5
2C
100
AcDbEntity
  8
0_0
100
AcDbBlockEnd
  0
BLOCK
  5
2F
100
AcDbEntity
  8
0_0
 62
     7
100
AcDbBlockBegin
  2
AI9-BLK3
 70
     0
 10
0.0
 20
0.0
 30
0.0
  3
AI9-BLK3
  1

  0
CIRCLE
  5
30
100
AcDbEntity
  8
0_0
 62
     7
100
AcDbCircle
 10
0.0
 20
0.0
 30
0.0
 40
0.03514
  0
ENDBLK
  5
31
100
AcDbEntity
  8
0_0
100
AcDbBlockEnd
  0
BLOCK
  5
34
100
AcDbEntity
  8
0_0
 62
     7
100
AcDbBlockBegin
  2
AI9-BLK4
 70
     0
 10
0.0
 20
0.0
 30
0.0
  3
AI9-BLK4
  1

  0
CIRCLE
  5
35
100
AcDbEntity
  8
0_0
 62
     7
100
AcDbCircle
 10
0.0
 20
0.0
 30
0.0
 40
0.03514
  0
ENDBLK
  5
36
100
AcDbEntity
  8
0_0
100
AcDbBlockEnd
  0
BLOCK
  5
4B
100
AcDbEntity
  8
0_0
  6
AI9-LTYPE1
 62
     7
100
AcDbBlockBegin
  2
AI9-BLK5
 70
     0
 10
0.0
 20
0.0
 30
0.0
  3
AI9-BLK5
  1

  0
LINE
  5
69
100
AcDbEntity
  8
0_0
  6
AI9-LTYPE1
 62
     7
100
AcDbLine
 10
214.999452
 20
-53.817301
 30
0.0
 11
214.999452
 21
32.572258
 31
0.0
  0
LINE
  5
68
100
AcDbEntity
  8
0_0
  6
AI9-LTYPE1
 62
     7
100
AcDbLine
 10
-206.582395
 20
28.363385
 30
0.0
 11
206.582395
 21
28.363385
 31
0.0
  0
POLYLINE
  5
63
100
AcDbEntity
  8
0_0
  6
AI9-LTYPE1
 62
     7
100
AcDb2dPolyline
 66
     1
 10
0.0
 20
0.0
 30
0.0
 70
     1
  0
VERTEX
  5
64
100
AcDbEntity
  8
0_0
  6
AI9-LTYPE1
 62
     7
100
AcDbVertex
100
AcDb2dVertex
 10
-206.582395
 20
29.766228
 30
0.0
  0
VERTEX
  5
65
100
AcDbEntity
  8
0_0
  6
AI9-LTYPE1
 62
     7
100
AcDbVertex
100
AcDb2dVertex
 10
-206.582395
 20
26.960542
 30
0.0
  0
VERTEX
  5
66
100
AcDbEntity
  8
0_0
  6
AI9-LTYPE1
 62
     7
100
AcDbVertex
100
AcDb2dVertex
 10
-215.000141
 20
28.363385
 30
0.0
  0
SEQEND
  5
67
100
AcDbEntity
  8
0_0
  6
AI9-LTYPE1
 62
     7
  0
HATCH
  5
62
100
AcDbEntity
  8
0_0
 62
     7
100
AcDbHatch
 10
0.0
 20
0.0
 30
0.0
210
0.0
220
0.0
230
1.0
  2
SOLID
 70
     1
 71
     0
 91
        1
 92
        3
 72
     0
 73
     1
 93
        3
 10
-206.58239474826388
 20
29.766227891710066
 10
-206.58239474826388
 20
26.960542127821178
 10
-215.00014105902775
 20
28.363385009765622
 97
        0
 75
     0
 76
     1
 98
        1
 10
0.0
 20
0.0
  0
POLYLINE
  5
5D
100
AcDbEntity
  8
0_0
  6
AI9-LTYPE1
 62
     7
100
AcDb2dPolyline
 66
     1
 10
0.0
 20
0.0
 30
0.0
 70
     1
  0
VERTEX
  5
5E
100
AcDbEntity
  8
0_0
  6
AI9-LTYPE1
 62
     7
100
AcDbVertex
100
AcDb2dVertex
 10
206.582395
 20
29.766228
 30
0.0
  0
VERTEX
  5
5F
100
AcDbEntity
  8
0_0
  6
AI9-LTYPE1
 62
     7
100
AcDbVertex
100
AcDb2dVertex
 10
206.582395
 20
26.960542
 30
0.0
  0
VERTEX
  5
60
100
AcDbEntity
  8
0_0
  6
AI9-LTYPE1
 62
     7
100
AcDbVertex
100
AcDb2dVertex
 10
214.999452
 20
28.363385
 30
0.0
  0
SEQEND
  5
61
100
AcDbEntity
  8
0_0
  6
AI9-LTYPE1
 62
     7
  0
HATCH
  5
5C
100
AcDbEntity
  8
0_0
 62
     7
100
AcDbHatch
 10
0.0
 20
0.0
 30
0.0
210
0.0
220
0.0
230
1.0
  2
SOLID
 70
     1
 71
     0
 91
        1
 92
        3
 72
     0
 73
     1
 93
        3
 10
214.99945203993053
 20
28.363385009765622
 10
206.58239474826388
 20
26.960542127821178
 10
206.58239474826388
 20
29.766227891710066
 97
        0
 75
     0
 76
     1
 98
        1
 10
0.0
 20
0.0
  0
MTEXT
  5
5B
100
AcDbEntity
  8
0_0
 62
     7
100
AcDbMText
 10
-27.431917
 20
49.108214
 30
0.0
 40
20.0
 41
0.0
 71
     1
 72
     2
  1
\fTxt|b0|i0;430
  7
STD
210
0.0
220
0.0
230
1.0
 11
1.000001
 21
0.0
 31
0.0
  0
INSERT
  5
57
100
AcDbEntity
  8
0_0
 62
     7
100
AcDbBlockReference
  2
AI9-BLK8
 10
-215.000141
 20
-55.92191
 30
0.0
  0
INSERT
  5
52
100
AcDbEntity
  8
0_0
 62
     7
100
AcDbBlockReference
  2
AI9-BLK7
 10
214.999797
 20
-55.921737
 30
0.0
  0
INSERT
  5
4D
100
AcDbEntity
  8
0_0
  6
AI9-LTYPE1
 62
     7
100
AcDbBlockReference
  2
AI9-BLK6
 10
214.999797
 20
28.363557
 30
0.0
  0
ENDBLK
  5
6A
100
AcDbEntity
  8
0_0
100
AcDbBlockEnd
  0
BLOCK
  5
4E
100
AcDbEntity
  8
0_0
  6
AI9-LTYPE1
 62
     7
100
AcDbBlockBegin
  2
AI9-BLK6
 70
     0
 10
0.0
 20
0.0
 30
0.0
  3
AI9-BLK6
  1

  0
CIRCLE
  5
4F
100
AcDbEntity
  8
0_0
 62
     7
100
AcDbCircle
 10
0.0
 20
-0.000172
 30
0.0
 40
0.035484
  0
ENDBLK
  5
50
100
AcDbEntity
  8
0_0
100
AcDbBlockEnd
  0
BLOCK
  5
53
100
AcDbEntity
  8
0_0
 62
     7
100
AcDbBlockBegin
  2
AI9-BLK7
 70
     0
 10
0.0
 20
0.0
 30
0.0
  3
AI9-BLK7
  1

  0
CIRCLE
  5
54
100
AcDbEntity
  8
0_0
 62
     7
100
AcDbCircle
 10
0.0
 20
-0.000172
 30
0.0
 40
0.035484
  0
ENDBLK
  5
55
100
AcDbEntity
  8
0_0
100
AcDbBlockEnd
  0
BLOCK
  5
58
100
AcDbEntity
  8
0_0
 62
     7
100
AcDbBlockBegin
  2
AI9-BLK8
 70
     0
 10
0.0
 20
0.0
 30
0.0
  3
AI9-BLK8
  1

  0
CIRCLE
  5
59
100
AcDbEntity
  8
0_0
 62
     7
100
AcDbCircle
 10
0.0
 20
0.0
 30
0.0
 40
0.03514
  0
ENDBLK
  5
5A
100
AcDbEntity
  8
0_0
100
AcDbBlockEnd
  0
BLOCK
  5
6D
100
AcDbEntity
  8
0_0
  6
AI9-LTYPE1
 62
     7
100
AcDbBlockBegin
  2
AI9-BLK9
 70
     0
 10
0.0
 20
0.0
 30
0.0
  3
AI9-BLK9
  1

  0
LINE
  5
8C
100
AcDbEntity
  8
0_0
  6
AI9-LTYPE1
 62
     7
100
AcDbLine
 10
-20.000157
 20
-28.817621
 30
0.0
 11
-20.000157
 21
32.572258
 31
0.0
  0
LINE
  5
8B
100
AcDbEntity
  8
0_0
  6
AI9-LTYPE1
 62
     7
100
AcDbLine
 10
20.000157
 20
-53.817301
 30
0.0
 11
20.000157
 21
32.572258
 31
0.0
  0
LINE
  5
8A
100
AcDbEntity
  8
0_0
  6
AI9-LTYPE1
 62
     7
100
AcDbLine
 10
-11.582411
 20
28.363385
 30
0.0
 11
11.582411
 21
28.363385
 31
0.0
  0
POLYLINE
  5
85
100
AcDbEntity
  8
0_0
  6
AI9-LTYPE1
 62
     7
100
AcDb2dPolyline
 66
     1
 10
0.0
 20
0.0
 30
0.0
 70
     1
  0
VERTEX
  5
86
100
AcDbEntity
  8
0_0
  6
AI9-LTYPE1
 62
     7
100
AcDbVertex
100
AcDb2dVertex
 10
-11.582411
 20
29.766228
 30
0.0
  0
VERTEX
  5
87
100
AcDbEntity
  8
0_0
  6
AI9-LTYPE1
 62
     7
100
AcDbVertex
100
AcDb2dVertex
 10
-11.582411
 20
26.960542
 30
0.0
  0
VERTEX
  5
88
100
AcDbEntity
  8
0_0
  6
AI9-LTYPE1
 62
     7
100
AcDbVertex
100
AcDb2dVertex
 10
-20.000157
 20
28.363385
 30
0.0
  0
SEQEND
  5
89
100
AcDbEntity
  8
0_0
  6
AI9-LTYPE1
 62
     7
  0
HATCH
  5
84
100
AcDbEntity
  8
0_0
 62
     7
100
AcDbHatch
 10
0.0
 20
0.0
 30
0.0
210
0.0
220
0.0
230
1.0
  2
SOLID
 70
     1
 71
     0
 91
        1
 92
        3
 72
     0
 73
     1
 93
        3
 10
-11.582411024305555
 20
29.766227891710066
 10
-11.582411024305555
 20
26.960542127821178
 10
-20.000157335069442
 20
28.363385009765622
 97
        0
 75
     0
 76
     1
 98
        1
 10
0.0
 20
0.0
  0
POLYLINE
  5
7F
100
AcDbEntity
  8
0_0
  6
AI9-LTYPE1
 62
     7
100
AcDb2dPolyline
 66
     1
 10
0.0
 20
0.0
 30
0.0
 70
     1
  0
VERTEX
  5
80
100
AcDbEntity
  8
0_0
  6
AI9-LTYPE1
 62
     7
100
AcDbVertex
100
AcDb2dVertex
 10
11.582411
 20
29.766228
 30
0.0
  0
VERTEX
  5
81
100
AcDbEntity
  8
0_0
  6
AI9-LTYPE1
 62
     7
100
AcDbVertex
100
AcDb2dVertex
 10
11.582411
 20
26.960542
 30
0.0
  0
VERTEX
  5
82
100
AcDbEntity
  8
0_0
  6
AI9-LTYPE1
 62
     7
100
AcDbVertex
100
AcDb2dVertex
 10
20.000157
 20
28.363385
 30
0.0
  0
SEQEND
  5
83
100
AcDbEntity
  8
0_0
  6
AI9-LTYPE1
 62
     7
  0
HATCH
  5
7E
100
AcDbEntity
  8
0_0
 62
     7
100
AcDbHatch
 10
0.0
 20
0.0
 30
0.0
210
0.0
220
0.0
230
1.0
  2
SOLID
 70
     1
 71
     0
 91
        1
 92
        3
 72
     0
 73
     1
 93
        3
 10
20.000157335069442
 20
28.363385009765622
 10
11.582411024305555
 20
26.960542127821178
 10
11.582411024305555
 20
29.766227891710066
 97
        0
 75
     0
 76
     1
 98
        1
 10
0.0
 20
0.0
  0
MTEXT
  5
7D
100
AcDbEntity
  8
0_0
 62
     7
100
AcDbMText
 10
-9.67934
 20
49.108214
 30
0.0
 40
20.0
 41
0.0
 71
     1
 72
     2
  1
\fTxt|b0|i0;4
  7
STD
210
0.0
220
0.0
230
1.0
 11
1.000001
 21
0.0
 31
0.0
  0
INSERT
  5
79
100
AcDbEntity
  8
0_0
 62
     7
100
AcDbBlockReference
  2
AI9-BLK12
 10
-19.999813
 20
-30.921713
 30
0.0
  0
INSERT
  5
74
100
AcDbEntity
  8
0_0
 62
     7
100
AcDbBlockReference
  2
AI9-BLK11
 10
20.000157
 20
-55.92191
 30
0.0
  0
INSERT
  5
6F
100
AcDbEntity
  8
0_0
  6
AI9-LTYPE1
 62
     7
100
AcDbBlockReference
  2
AI9-BLK10
 10
20.000157
 20
28.363385
 30
0.0
  0
ENDBLK
  5
8D
100
AcDbEntity
  8
0_0
100
AcDbBlockEnd
  0
BLOCK
  5
70
100
AcDbEntity
  8
0_0
  6
AI9-LTYPE1
 62
     7
100
AcDbBlockBegin
  2
AI9-BLK10
 70
     0
 10
0.0
 20
0.0
 30
0.0
  3
AI9-BLK10
  1

  0
CIRCLE
  5
71
100
AcDbEntity
  8
0_0
 62
     7
100
AcDbCircle
 10
0.0
 20
0.0
 30
0.0
 40
0.03514
  0
ENDBLK
  5
72
100
AcDbEntity
  8
0_0
100
AcDbBlockEnd
  0
BLOCK
  5
75
100
AcDbEntity
  8
0_0
 62
     7
100
AcDbBlockBegin
  2
AI9-BLK11
 70
     0
 10
0.0
 20
0.0
 30
0.0
  3
AI9-BLK11
  1

  0
CIRCLE
  5
76
100
AcDbEntity
  8
0_0
 62
     7
100
AcDbCircle
 10
0.0
 20
0.0
 30
0.0
 40
0.03514
  0
ENDBLK
  5
77
100
AcDbEntity
  8
0_0
100
AcDbBlockEnd
  0
BLOCK
  5
7A
100
AcDbEntity
  8
0_0
 62
     7
100
AcDbBlockBegin
  2
AI9-BLK12
 70
     0
 10
0.0
 20
0.0
 30
0.0
  3
AI9-BLK12
  1

  0
CIRCLE
  5
7B
100
AcDbEntity
  8
0_0
 62
     7
100
AcDbCircle
 10
0.0
 20
-0.000172
 30
0.0
 40
0.035484
  0
ENDBLK
  5
7C
100
AcDbEntity
  8
0_0
100
AcDbBlockEnd
  0
BLOCK
  5
95
100
AcDbEntity
  8
0_0
 62
     7
100
AcDbBlockBegin
  2
AI9-BLK13
 70
     0
 10
0.0
 20
0.0
 30
0.0
  3
AI9-BLK13
  1

  0
LINE
  5
B4
100
AcDbEntity
  8
0_0
  6
AI9-LTYPE1
 62
     7
100
AcDbLine
 10
-359.99999
 20
-57.552215
 30
0.0
 11
-359.99999
 21
36.307345
 31
0.0
  0
LINE
  5
B3
100
AcDbEntity
  8
0_0
  6
AI9-LTYPE1
 62
     7
100
AcDbLine
 10
359.99999
 20
-57.552215
 30
0.0
 11
359.99999
 21
36.307345
 31
0.0
  0
LINE
  5
B2
100
AcDbEntity
  8
0_0
  6
AI9-LTYPE1
 62
     7
100
AcDbLine
 10
-351.582588
 20
32.098816
 30
0.0
 11
351.582416
 21
32.098816
 31
0.0
  0
POLYLINE
  5
AD
100
AcDbEntity
  8
0_0
  6
AI9-LTYPE1
 62
     7
100
AcDb2dPolyline
 66
     1
 10
0.0
 20
0.0
 30
0.0
 70
     1
  0
VERTEX
  5
AE
100
AcDbEntity
  8
0_0
  6
AI9-LTYPE1
 62
     7
100
AcDbVertex
100
AcDb2dVertex
 10
-351.582588
 20
33.501659
 30
0.0
  0
VERTEX
  5
AF
100
AcDbEntity
  8
0_0
  6
AI9-LTYPE1
 62
     7
100
AcDbVertex
100
AcDb2dVertex
 10
-351.582588
 20
30.695629
 30
0.0
  0
VERTEX
  5
B0
100
AcDbEntity
  8
0_0
  6
AI9-LTYPE1
 62
     7
100
AcDbVertex
100
AcDb2dVertex
 10
-359.99999
 20
32.098816
 30
0.0
  0
SEQEND
  5
B1
100
AcDbEntity
  8
0_0
  6
AI9-LTYPE1
 62
     7
  0
HATCH
  5
AC
100
AcDbEntity
  8
0_0
 62
     7
100
AcDbHatch
 10
0.0
 20
0.0
 30
0.0
210
0.0
220
0.0
230
1.0
  2
SOLID
 70
     1
 71
     0
 91
        1
 92
        3
 72
     0
 73
     1
 93
        3
 10
-351.58258802625863
 20
33.501658799913194
 10
-351.58258802625863
 20
30.695628526475691
 10
-359.99998982747394
 20
32.09881591796875
 97
        0
 75
     0
 76
     1
 98
        1
 10
0.0
 20
0.0
  0
POLYLINE
  5
A7
100
AcDbEntity
  8
0_0
  6
AI9-LTYPE1
 62
     7
100
AcDb2dPolyline
 66
     1
 10
0.0
 20
0.0
 30
0.0
 70
     1
  0
VERTEX
  5
A8
100
AcDbEntity
  8
0_0
  6
AI9-LTYPE1
 62
     7
100
AcDbVertex
100
AcDb2dVertex
 10
351.582416
 20
33.501659
 30
0.0
  0
VERTEX
  5
A9
100
AcDbEntity
  8
0_0
  6
AI9-LTYPE1
 62
     7
100
AcDbVertex
100
AcDb2dVertex
 10
351.582416
 20
30.695629
 30
0.0
  0
VERTEX
  5
AA
100
AcDbEntity
  8
0_0
  6
AI9-LTYPE1
 62
     7
100
AcDbVertex
100
AcDb2dVertex
 10
359.99999
 20
32.098816
 30
0.0
  0
SEQEND
  5
AB
100
AcDbEntity
  8
0_0
  6
AI9-LTYPE1
 62
     7
  0
HATCH
  5
A6
100
AcDbEntity
  8
0_0
 62
     7
100
AcDbHatch
 10
0.0
 20
0.0
 30
0.0
210
0.0
220
0.0
230
1.0
  2
SOLID
 70
     1
 71
     0
 91
        1
 92
        3
 72
     0
 73
     1
 93
        3
 10
359.99998982747394
 20
32.09881591796875
 10
351.58241577148436
 20
30.695628526475691
 10
351.58241577148436
 20
33.501658799913194
 97
        0
 75
     0
 76
     1
 98
        1
 10
0.0
 20
0.0
  0
MTEXT
  5
A5
100
AcDbEntity
  8
0_0
 62
     7
100
AcDbMText
 10
-27.431142
 20
52.842956
 30
0.0
 40
20.0
 41
0.0
 71
     1
 72
     2
  1
\fTxt|b0|i0;720
  7
STD
210
0.0
220
0.0
230
1.0
 11
1.000001
 21
0.0
 31
0.0
  0
INSERT
  5
A1
100
AcDbEntity
  8
0_0
 62
     7
100
AcDbBlockReference
  2
AI9-BLK16
 10
-359.99999
 20
-59.656307
 30
0.0
  0
INSERT
  5
9C
100
AcDbEntity
  8
0_0
 62
     7
100
AcDbBlockReference
  2
AI9-BLK15
 10
359.99999
 20
-59.656307
 30
0.0
  0
INSERT
  5
97
100
AcDbEntity
  8
0_0
 62
     7
100
AcDbBlockReference
  2
AI9-BLK14
 10
359.99999
 20
32.098644
 30
0.0
  0
ENDBLK
  5
B5
100
AcDbEntity
  8
0_0
100
AcDbBlockEnd
  0
BLOCK
  5
98
100
AcDbEntity
  8
0_0
 62
     7
100
AcDbBlockBegin
  2
AI9-BLK14
 70
     0
 10
0.0
 20
0.0
 30
0.0
  3
AI9-BLK14
  1

  0
CIRCLE
  5
99
100
AcDbEntity
  8
0_0
 62
     7
100
AcDbCircle
 10
0.0
 20
0.000172
 30
0.0
 40
0.035312
  0
ENDBLK
  5
9A
100
AcDbEntity
  8
0_0
100
AcDbBlockEnd
  0
BLOCK
  5
9D
100
AcDbEntity
  8
0_0
 62
     7
100
AcDbBlockBegin
  2
AI9-BLK15
 70
     0
 10
0.0
 20
0.0
 30
0.0
  3
AI9-BLK15
  1

  0
CIRCLE
  5
9E
100
AcDbEntity
  8
0_0
 62
     7
100
AcDbCircle
 10
0.0
 20
-0.000172
 30
0.0
 40
0.035312
  0
ENDBLK
  5
9F
100
AcDbEntity
  8
0_0
100
AcDbBlockEnd
  0
BLOCK
  5
A2
100
AcDbEntity
  8
0_0
 62
     7
100
AcDbBlockBegin
  2
AI9-BLK16
 70
     0
 10
0.0
 20
0.0
 30
0.0
  3
AI9-BLK16
  1

  0
CIRCLE
  5
A3
100
AcDbEntity
  8
0_0
 62
     7
100
AcDbCircle
 10
0.0
 20
-0.000172
 30
0.0
 40
0.035312
  0
ENDBLK
  5
A4
100
AcDbEntity
  8
0_0
100
AcDbBlockEnd
  0
BLOCK
  5
B8
100
AcDbEntity
  8
0_0
  6
AI9-LTYPE1
 62
     7
100
AcDbBlockBegin
  2
AI9-BLK17
 70
     0
 10
0.0
 20
0.0
 30
0.0
  3
AI9-BLK17
  1

  0
LINE
  5
D6
100
AcDbEntity
  8
0_0
  6
AI9-LTYPE1
 62
     7
100
AcDbLine
 10
42.49999
 20
-30.273432
 30
0.0
 11
42.49999
 21
9.028906
 31
0.0
  0
LINE
  5
D5
100
AcDbEntity
  8
0_0
  6
AI9-LTYPE1
 62
     7
100
AcDbLine
 10
-34.082416
 20
4.820033
 30
0.0
 11
34.082416
 21
4.820033
 31
0.0
  0
POLYLINE
  5
D0
100
AcDbEntity
  8
0_0
  6
AI9-LTYPE1
 62
     7
100
AcDb2dPolyline
 66
     1
 10
0.0
 20
0.0
 30
0.0
 70
     1
  0
VERTEX
  5
D1
100
AcDbEntity
  8
0_0
  6
AI9-LTYPE1
 62
     7
100
AcDbVertex
100
AcDb2dVertex
 10
-34.082416
 20
6.222876
 30
0.0
  0
VERTEX
  5
D2
100
AcDbEntity
  8
0_0
  6
AI9-LTYPE1
 62
     7
100
AcDbVertex
100
AcDb2dVertex
 10
-34.082416
 20
3.41719
 30
0.0
  0
VERTEX
  5
D3
100
AcDbEntity
  8
0_0
  6
AI9-LTYPE1
 62
     7
100
AcDbVertex
100
AcDb2dVertex
 10
-42.49999
 20
4.820033
 30
0.0
  0
SEQEND
  5
D4
100
AcDbEntity
  8
0_0
  6
AI9-LTYPE1
 62
     7
  0
HATCH
  5
CF
100
AcDbEntity
  8
0_0
 62
     7
100
AcDbHatch
 10
0.0
 20
0.0
 30
0.0
210
0.0
220
0.0
230
1.0
  2
SOLID
 70
     1
 71
     0
 91
        1
 92
        3
 72
     0
 73
     1
 93
        3
 10
-34.082415771484371
 20
6.2228759765624995
 10
-34.082415771484371
 20
3.4171902126736109
 10
-42.499989827473954
 20
4.8200330946180552
 97
        0
 75
     0
 76
     1
 98
        1
 10
0.0
 20
0.0
  0
POLYLINE
  5
CA
100
AcDbEntity
  8
0_0
  6
AI9-LTYPE1
 62
     7
100
AcDb2dPolyline
 66
     1
 10
0.0
 20
0.0
 30
0.0
 70
     1
  0
VERTEX
  5
CB
100
AcDbEntity
  8
0_0
  6
AI9-LTYPE1
 62
     7
100
AcDbVertex
100
AcDb2dVertex
 10
34.082416
 20
6.222876
 30
0.0
  0
VERTEX
  5
CC
100
AcDbEntity
  8
0_0
  6
AI9-LTYPE1
 62
     7
100
AcDbVertex
100
AcDb2dVertex
 10
34.082416
 20
3.41719
 30
0.0
  0
VERTEX
  5
CD
100
AcDbEntity
  8
0_0
  6
AI9-LTYPE1
 62
     7
100
AcDbVertex
100
AcDb2dVertex
 10
42.49999
 20
4.820033
 30
0.0
  0
SEQEND
  5
CE
100
AcDbEntity
  8
0_0
  6
AI9-LTYPE1
 62
     7
  0
HATCH
  5
C9
100
AcDbEntity
  8
0_0
 62
     7
100
AcDbHatch
 10
0.0
 20
0.0
 30
0.0
210
0.0
220
0.0
230
1.0
  2
SOLID
 70
     1
 71
     0
 91
        1
 92
        3
 72
     0
 73
     1
 93
        3
 10
42.499989827473954
 20
4.8200330946180552
 10
34.082415771484371
 20
3.4171902126736109
 10
34.082415771484371
 20
6.2228759765624995
 97
        0
 75
     0
 76
     1
 98
        1
 10
0.0
 20
0.0
  0
MTEXT
  5
C8
100
AcDbEntity
  8
0_0
 62
     7
100
AcDbMText
 10
-9.679599
 20
25.564518
 30
0.0
 40
20.0
 41
0.0
 71
     1
 72
     2
  1
\fTxt|b0|i0;8
  7
STD
210
0.0
220
0.0
230
1.0
 11
1.000001
 21
0.0
 31
0.0
  0
INSERT
  5
C4
100
AcDbEntity
  8
0_0
 62
     7
100
AcDbBlockReference
  2
AI9-BLK20
 10
-42.49999
 20
-29.898089
 30
0.0
  0
INSERT
  5
BF
100
AcDbEntity
  8
0_0
 62
     7
100
AcDbBlockReference
  2
AI9-BLK19
 10
42.49999
 20
-32.377869
 30
0.0
  0
INSERT
  5
BA
100
AcDbEntity
  8
0_0
  6
AI9-LTYPE1
 62
     7
100
AcDbBlockReference
  2
AI9-BLK18
 10
42.49999
 20
4.820205
 30
0.0
  0
ENDBLK
  5
D7
100
AcDbEntity
  8
0_0
100
AcDbBlockEnd
  0
BLOCK
  5
BB
100
AcDbEntity
  8
0_0
  6
AI9-LTYPE1
 62
     7
100
AcDbBlockBegin
  2
AI9-BLK18
 70
     0
 10
0.0
 20
0.0
 30
0.0
  3
AI9-BLK18
  1

  0
CIRCLE
  5
BC
100
AcDbEntity
  8
0_0
 62
     7
100
AcDbCircle
 10
0.0
 20
-0.000172
 30
0.0
 40
0.035312
  0
ENDBLK
  5
BD
100
AcDbEntity
  8
0_0
100
AcDbBlockEnd
  0
BLOCK
  5
C0
100
AcDbEntity
  8
0_0
 62
     7
100
AcDbBlockBegin
  2
AI9-BLK19
 70
     0
 10
0.0
 20
0.0
 30
0.0
  3
AI9-BLK19
  1

  0
CIRCLE
  5
C1
100
AcDbEntity
  8
0_0
 62
     7
100
AcDbCircle
 10
0.0
 20
-0.000172
 30
0.0
 40
0.035312
  0
ENDBLK
  5
C2
100
AcDbEntity
  8
0_0
100
AcDbBlockEnd
  0
BLOCK
  5
C5
100
AcDbEntity
  8
0_0
 62
     7
100
AcDbBlockBegin
  2
AI9-BLK20
 70
     0
 10
0.0
 20
0.0
 30
0.0
  3
AI9-BLK20
  1

  0
CIRCLE
  5
C6
100
AcDbEntity
  8
0_0
 62
     7
100
AcDbCircle
 10
0.0
 20
0.000172
 30
0.0
 40
0.035312
  0
ENDBLK
  5
C7
100
AcDbEntity
  8
0_0
100
AcDbBlockEnd
  0
BLOCK
  5
DA
100
AcDbEntity
  8
0_0
  6
AI9-LTYPE1
 62
     7
100
AcDbBlockBegin
  2
AI9-BLK21
 70
     0
 10
0.0
 20
0.0
 30
0.0
  3
AI9-BLK21
  1

  0
LINE
  5
F8
100
AcDbEntity
  8
0_0
  6
AI9-LTYPE1
 62
     7
100
AcDbLine
 10
104.999965
 20
-26.553762
 30
0.0
 11
104.999965
 21
10.268796
 31
0.0
  0
LINE
  5
F7
100
AcDbEntity
  8
0_0
  6
AI9-LTYPE1
 62
     7
100
AcDbLine
 10
-96.582563
 20
6.059923
 30
0.0
 11
96.582563
 21
6.059923
 31
0.0
  0
POLYLINE
  5
F2
100
AcDbEntity
  8
0_0
  6
AI9-LTYPE1
 62
     7
100
AcDb2dPolyline
 66
     1
 10
0.0
 20
0.0
 30
0.0
 70
     1
  0
VERTEX
  5
F3
100
AcDbEntity
  8
0_0
  6
AI9-LTYPE1
 62
     7
100
AcDbVertex
100
AcDb2dVertex
 10
-96.582563
 20
7.462766
 30
0.0
  0
VERTEX
  5
F4
100
AcDbEntity
  8
0_0
  6
AI9-LTYPE1
 62
     7
100
AcDbVertex
100
AcDb2dVertex
 10
-96.582563
 20
4.65708
 30
0.0
  0
VERTEX
  5
F5
100
AcDbEntity
  8
0_0
  6
AI9-LTYPE1
 62
     7
100
AcDbVertex
100
AcDb2dVertex
 10
-104.999965
 20
6.059923
 30
0.0
  0
SEQEND
  5
F6
100
AcDbEntity
  8
0_0
  6
AI9-LTYPE1
 62
     7
  0
HATCH
  5
F1
100
AcDbEntity
  8
0_0
 62
     7
100
AcDbHatch
 10
0.0
 20
0.0
 30
0.0
210
0.0
220
0.0
230
1.0
  2
SOLID
 70
     1
 71
     0
 91
        1
 92
        3
 72
     0
 73
     1
 93
        3
 10
-96.582562934027763
 20
7.462765842013888
 10
-96.582562934027763
 20
4.6570800781249995
 10
-104.99996473524304
 20
6.0599229600694438
 97
        0
 75
     0
 76
     1
 98
        1
 10
0.0
 20
0.0
  0
POLYLINE
  5
EC
100
AcDbEntity
  8
0_0
  6
AI9-LTYPE1
 62
     7
100
AcDb2dPolyline
 66
     1
 10
0.0
 20
0.0
 30
0.0
 70
     1
  0
VERTEX
  5
ED
100
AcDbEntity
  8
0_0
  6
AI9-LTYPE1
 62
     7
100
AcDbVertex
100
AcDb2dVertex
 10
96.582563
 20
7.462766
 30
0.0
  0
VERTEX
  5
EE
100
AcDbEntity
  8
0_0
  6
AI9-LTYPE1
 62
     7
100
AcDbVertex
100
AcDb2dVertex
 10
96.582563
 20
4.65708
 30
0.0
  0
VERTEX
  5
EF
100
AcDbEntity
  8
0_0
  6
AI9-LTYPE1
 62
     7
100
AcDbVertex
100
AcDb2dVertex
 10
104.999965
 20
6.059923
 30
0.0
  0
SEQEND
  5
F0
100
AcDbEntity
  8
0_0
  6
AI9-LTYPE1
 62
     7
  0
HATCH
  5
EB
100
AcDbEntity
  8
0_0
 62
     7
100
AcDbHatch
 10
0.0
 20
0.0
 30
0.0
210
0.0
220
0.0
230
1.0
  2
SOLID
 70
     1
 71
     0
 91
        1
 92
        3
 72
     0
 73
     1
 93
        3
 10
104.99996473524304
 20
6.0599229600694438
 10
96.582562934027763
 20
4.6570800781249995
 10
96.582562934027763
 20
7.462765842013888
 97
        0
 75
     0
 76
     1
 98
        1
 10
0.0
 20
0.0
  0
MTEXT
  5
EA
100
AcDbEntity
  8
0_0
 62
     7
100
AcDbMText
 10
-16.137172
 20
26.804408
 30
0.0
 40
20.0
 41
0.0
 71
     1
 72
     2
  1
\fTxt|b0|i0;21
  7
STD
210
0.0
220
0.0
230
1.0
 11
1.000001
 21
0.0
 31
0.0
  0
INSERT
  5
E6
100
AcDbEntity
  8
0_0
 62
     7
100
AcDbBlockReference
  2
AI9-BLK24
 10
-105.000051
 20
-33.617931
 30
0.0
  0
INSERT
  5
E1
100
AcDbEntity
  8
0_0
 62
     7
100
AcDbBlockReference
  2
AI9-BLK23
 10
104.999965
 20
-28.658199
 30
0.0
  0
INSERT
  5
DC
100
AcDbEntity
  8
0_0
  6
AI9-LTYPE1
 62
     7
100
AcDbBlockReference
  2
AI9-BLK22
 10
104.999965
 20
6.060095
 30
0.0
  0
ENDBLK
  5
F9
100
AcDbEntity
  8
0_0
100
AcDbBlockEnd
  0
BLOCK
  5
DD
100
AcDbEntity
  8
0_0
  6
AI9-LTYPE1
 62
     7
100
AcDbBlockBegin
  2
AI9-BLK22
 70
     0
 10
0.0
 20
0.0
 30
0.0
  3
AI9-BLK22
  1

  0
CIRCLE
  5
DE
100
AcDbEntity
  8
0_0
 62
     7
100
AcDbCircle
 10
0.0
 20
-0.000172
 30
0.0
 40
0.035312
  0
ENDBLK
  5
DF
100
AcDbEntity
  8
0_0
100
AcDbBlockEnd
  0
BLOCK
  5
E2
100
AcDbEntity
  8
0_0
 62
     7
100
AcDbBlockBegin
  2
AI9-BLK23
 70
     0
 10
0.0
 20
0.0
 30
0.0
  3
AI9-BLK23
  1

  0
CIRCLE
  5
E3
100
AcDbEntity
  8
0_0
 62
     7
100
AcDbCircle
 10
0.0
 20
0.000172
 30
0.0
 40
0.035312
  0
ENDBLK
  5
E4
100
AcDbEntity
  8
0_0
100
AcDbBlockEnd
  0
BLOCK
  5
E7
100
AcDbEntity
  8
0_0
 62
     7
100
AcDbBlockBegin
  2
AI9-BLK24
 70
     0
 10
0.0
 20
0.0
 30
0.0
  3
AI9-BLK24
  1

  0
CIRCLE
  5
E8
100
AcDbEntity
  8
0_0
 62
     7
100
AcDbCircle
 10
0.0
 20
0.0
 30
0.0
 40
0.035226
  0
ENDBLK
  5
E9
100
AcDbEntity
  8
0_0
100
AcDbBlockEnd
  0
BLOCK
  5
FC
100
AcDbEntity
  8
0_0
  6
AI9-LTYPE1
 62
     7
100
AcDbBlockBegin
  2
AI9-BLK25
 70
     0
 10
0.0
 20
0.0
 30
0.0
  3
AI9-BLK25
  1

  0
LINE
  5
11A
100
AcDbEntity
  8
0_0
  6
AI9-LTYPE1
 62
     7
100
AcDbLine
 10
65.000167
 20
-31.513666
 30
0.0
 11
65.000167
 21
10.268796
 31
0.0
  0
LINE
  5
119
100
AcDbEntity
  8
0_0
  6
AI9-LTYPE1
 62
     7
100
AcDbLine
 10
-56.582421
 20
6.059923
 30
0.0
 11
56.582593
 21
6.059923
 31
0.0
  0
POLYLINE
  5
114
100
AcDbEntity
  8
0_0
  6
AI9-LTYPE1
 62
     7
100
AcDb2dPolyline
 66
     1
 10
0.0
 20
0.0
 30
0.0
 70
     1
  0
VERTEX
  5
115
100
AcDbEntity
  8
0_0
  6
AI9-LTYPE1
 62
     7
100
AcDbVertex
100
AcDb2dVertex
 10
-56.582421
 20
7.462766
 30
0.0
  0
VERTEX
  5
116
100
AcDbEntity
  8
0_0
  6
AI9-LTYPE1
 62
     7
100
AcDbVertex
100
AcDb2dVertex
 10
-56.582421
 20
4.65708
 30
0.0
  0
VERTEX
  5
117
100
AcDbEntity
  8
0_0
  6
AI9-LTYPE1
 62
     7
100
AcDbVertex
100
AcDb2dVertex
 10
-64.999822
 20
6.059923
 30
0.0
  0
SEQEND
  5
118
100
AcDbEntity
  8
0_0
  6
AI9-LTYPE1
 62
     7
  0
HATCH
  5
113
100
AcDbEntity
  8
0_0
 62
     7
100
AcDbHatch
 10
0.0
 20
0.0
 30
0.0
210
0.0
220
0.0
230
1.0
  2
SOLID
 70
     1
 71
     0
 91
        1
 92
        3
 72
     0
 73
     1
 93
        3
 10
-56.582420518663191
 20
7.462765842013888
 10
-56.582420518663191
 20
4.6570800781249995
 10
-64.999822319878461
 20
6.0599229600694438
 97
        0
 75
     0
 76
     1
 98
        1
 10
0.0
 20
0.0
  0
POLYLINE
  5
10E
100
AcDbEntity
  8
0_0
  6
AI9-LTYPE1
 62
     7
100
AcDb2dPolyline
 66
     1
 10
0.0
 20
0.0
 30
0.0
 70
     1
  0
VERTEX
  5
10F
100
AcDbEntity
  8
0_0
  6
AI9-LTYPE1
 62
     7
100
AcDbVertex
100
AcDb2dVertex
 10
56.582593
 20
7.462766
 30
0.0
  0
VERTEX
  5
110
100
AcDbEntity
  8
0_0
  6
AI9-LTYPE1
 62
     7
100
AcDbVertex
100
AcDb2dVertex
 10
56.582593
 20
4.65708
 30
0.0
  0
VERTEX
  5
111
100
AcDbEntity
  8
0_0
  6
AI9-LTYPE1
 62
     7
100
AcDbVertex
100
AcDb2dVertex
 10
65.000167
 20
6.059923
 30
0.0
  0
SEQEND
  5
112
100
AcDbEntity
  8
0_0
  6
AI9-LTYPE1
 62
     7
  0
HATCH
  5
10D
100
AcDbEntity
  8
0_0
 62
     7
100
AcDbHatch
 10
0.0
 20
0.0
 30
0.0
210
0.0
220
0.0
230
1.0
  2
SOLID
 70
     1
 71
     0
 91
        1
 92
        3
 72
     0
 73
     1
 93
        3
 10
65.000166829427073
 20
6.0599229600694438
 10
56.582592773437497
 20
4.6570800781249995
 10
56.582592773437497
 20
7.462765842013888
 97
        0
 75
     0
 76
     1
 98
        1
 10
0.0
 20
0.0
  0
MTEXT
  5
10C
100
AcDbEntity
  8
0_0
 62
     7
100
AcDbMText
 10
-16.137172
 20
26.804408
 30
0.0
 40
20.0
 41
0.0
 71
     1
 72
     2
  1
\fTxt|b0|i0;13
  7
STD
210
0.0
220
0.0
230
1.0
 11
1.000001
 21
0.0
 31
0.0
  0
INSERT
  5
108
100
AcDbEntity
  8
0_0
 62
     7
100
AcDbBlockReference
  2
AI9-BLK28
 10
-64.999995
 20
-31.137979
 30
0.0
  0
INSERT
  5
103
100
AcDbEntity
  8
0_0
 62
     7
100
AcDbBlockReference
  2
AI9-BLK27
 10
65.000081
 20
-33.617931
 30
0.0
  0
INSERT
  5
FE
100
AcDbEntity
  8
0_0
  6
AI9-LTYPE1
 62
     7
100
AcDbBlockReference
  2
AI9-BLK26
 10
65.000081
 20
6.059923
 30
0.0
  0
ENDBLK
  5
11B
100
AcDbEntity
  8
0_0
100
AcDbBlockEnd
  0
BLOCK
  5
FF
100
AcDbEntity
  8
0_0
  6
AI9-LTYPE1
 62
     7
100
AcDbBlockBegin
  2
AI9-BLK26
 70
     0
 10
0.0
 20
0.0
 30
0.0
  3
AI9-BLK26
  1

  0
CIRCLE
  5
100
100
AcDbEntity
  8
0_0
 62
     7
100
AcDbCircle
 10
0.0
 20
0.0
 30
0.0
 40
0.035226
  0
ENDBLK
  5
101
100
AcDbEntity
  8
0_0
100
AcDbBlockEnd
  0
BLOCK
  5
104
100
AcDbEntity
  8
0_0
 62
     7
100
AcDbBlockBegin
  2
AI9-BLK27
 70
     0
 10
0.0
 20
0.0
 30
0.0
  3
AI9-BLK27
  1

  0
CIRCLE
  5
105
100
AcDbEntity
  8
0_0
 62
     7
100
AcDbCircle
 10
0.0
 20
0.0
 30
0.0
 40
0.035226
  0
ENDBLK
  5
106
100
AcDbEntity
  8
0_0
100
AcDbBlockEnd
  0
BLOCK
  5
109
100
AcDbEntity
  8
0_0
 62
     7
100
AcDbBlockBegin
  2
AI9-BLK28
 70
     0
 10
0.0
 20
0.0
 30
0.0
  3
AI9-BLK28
  1

  0
CIRCLE
  5
10A
100
AcDbEntity
  8
0_0
 62
     7
100
AcDbCircle
 10
0.0
 20
-0.000172
 30
0.0
 40
0.035312
  0
ENDBLK
  5
10B
100
AcDbEntity
  8
0_0
100
AcDbBlockEnd
  0
BLOCK
  5
11E
100
AcDbEntity
  8
0_0
  6
AI9-LTYPE1
 62
     7
100
AcDbBlockBegin
  2
AI9-BLK29
 70
     0
 10
0.0
 20
0.0
 30
0.0
  3
AI9-BLK29
  1

  0
LINE
  5
13C
100
AcDbEntity
  8
0_0
  6
AI9-LTYPE1
 62
     7
100
AcDbLine
 10
105.000137
 20
-30.273432
 30
0.0
 11
105.000137
 21
9.028906
 31
0.0
  0
LINE
  5
13B
100
AcDbEntity
  8
0_0
  6
AI9-LTYPE1
 62
     7
100
AcDbLine
 10
-96.582391
 20
4.820033
 30
0.0
 11
96.582563
 21
4.820033
 31
0.0
  0
POLYLINE
  5
136
100
AcDbEntity
  8
0_0
  6
AI9-LTYPE1
 62
     7
100
AcDb2dPolyline
 66
     1
 10
0.0
 20
0.0
 30
0.0
 70
     1
  0
VERTEX
  5
137
100
AcDbEntity
  8
0_0
  6
AI9-LTYPE1
 62
     7
100
AcDbVertex
100
AcDb2dVertex
 10
-96.582391
 20
6.222876
 30
0.0
  0
VERTEX
  5
138
100
AcDbEntity
  8
0_0
  6
AI9-LTYPE1
 62
     7
100
AcDbVertex
100
AcDb2dVertex
 10
-96.582391
 20
3.41719
 30
0.0
  0
VERTEX
  5
139
100
AcDbEntity
  8
0_0
  6
AI9-LTYPE1
 62
     7
100
AcDbVertex
100
AcDb2dVertex
 10
-104.999965
 20
4.820033
 30
0.0
  0
SEQEND
  5
13A
100
AcDbEntity
  8
0_0
  6
AI9-LTYPE1
 62
     7
  0
HATCH
  5
135
100
AcDbEntity
  8
0_0
 62
     7
100
AcDbHatch
 10
0.0
 20
0.0
 30
0.0
210
0.0
220
0.0
230
1.0
  2
SOLID
 70
     1
 71
     0
 91
        1
 92
        3
 72
     0
 73
     1
 93
        3
 10
-96.582390679253464
 20
6.2228759765624995
 10
-96.582390679253464
 20
3.4171902126736109
 10
-104.99996473524304
 20
4.8200330946180552
 97
        0
 75
     0
 76
     1
 98
        1
 10
0.0
 20
0.0
  0
POLYLINE
  5
130
100
AcDbEntity
  8
0_0
  6
AI9-LTYPE1
 62
     7
100
AcDb2dPolyline
 66
     1
 10
0.0
 20
0.0
 30
0.0
 70
     1
  0
VERTEX
  5
131
100
AcDbEntity
  8
0_0
  6
AI9-LTYPE1
 62
     7
100
AcDbVertex
100
AcDb2dVertex
 10
96.582563
 20
6.222876
 30
0.0
  0
VERTEX
  5
132
100
AcDbEntity
  8
0_0
  6
AI9-LTYPE1
 62
     7
100
AcDbVertex
100
AcDb2dVertex
 10
96.582563
 20
3.41719
 30
0.0
  0
VERTEX
  5
133
100
AcDbEntity
  8
0_0
  6
AI9-LTYPE1
 62
     7
100
AcDbVertex
100
AcDb2dVertex
 10
105.000137
 20
4.820033
 30
0.0
  0
SEQEND
  5
134
100
AcDbEntity
  8
0_0
  6
AI9-LTYPE1
 62
     7
  0
HATCH
  5
12F
100
AcDbEntity
  8
0_0
 62
     7
100
AcDbHatch
 10
0.0
 20
0.0
 30
0.0
210
0.0
220
0.0
230
1.0
  2
SOLID
 70
     1
 71
     0
 91
        1
 92
        3
 72
     0
 73
     1
 93
        3
 10
105.00013699001735
 20
4.8200330946180552
 10
96.582562934027763
 20
3.4171902126736109
 10
96.582562934027763
 20
6.2228759765624995
 97
        0
 75
     0
 76
     1
 98
        1
 10
0.0
 20
0.0
  0
MTEXT
  5
12E
100
AcDbEntity
  8
0_0
 62
     7
100
AcDbMText
 10
-16.137172
 20
25.564518
 30
0.0
 40
20.0
 41
0.0
 71
     1
 72
     2
  1
\fTxt|b0|i0;21
  7
STD
210
0.0
220
0.0
230
1.0
 11
1.000001
 21
0.0
 31
0.0
  0
INSERT
  5
12A
100
AcDbEntity
  8
0_0
 62
     7
100
AcDbBlockReference
  2
AI9-BLK32
 10
-104.999965
 20
-32.377869
 30
0.0
  0
INSERT
  5
125
100
AcDbEntity
  8
0_0
 62
     7
100
AcDbBlockReference
  2
AI9-BLK31
 10
104.999965
 20
-32.377869
 30
0.0
  0
INSERT
  5
120
100
AcDbEntity
  8
0_0
  6
AI9-LTYPE1
 62
     7
100
AcDbBlockReference
  2
AI9-BLK30
 10
104.999965
 20
4.820205
 30
0.0
  0
ENDBLK
  5
13D
100
AcDbEntity
  8
0_0
100
AcDbBlockEnd
  0
BLOCK
  5
121
100
AcDbEntity
  8
0_0
  6
AI9-LTYPE1
 62
     7
100
AcDbBlockBegin
  2
AI9-BLK30
 70
     0
 10
0.0
 20
0.0
 30
0.0
  3
AI9-BLK30
  1

  0
CIRCLE
  5
122
100
AcDbEntity
  8
0_0
 62
     7
100
AcDbCircle
 10
0.0
 20
-0.000172
 30
0.0
 40
0.035312
  0
ENDBLK
  5
123
100
AcDbEntity
  8
0_0
100
AcDbBlockEnd
  0
BLOCK
  5
126
100
AcDbEntity
  8
0_0
 62
     7
100
AcDbBlockBegin
  2
AI9-BLK31
 70
     0
 10
0.0
 20
0.0
 30
0.0
  3
AI9-BLK31
  1

  0
CIRCLE
  5
127
100
AcDbEntity
  8
0_0
 62
     7
100
AcDbCircle
 10
0.0
 20
-0.000172
 30
0.0
 40
0.035312
  0
ENDBLK
  5
128
100
AcDbEntity
  8
0_0
100
AcDbBlockEnd
  0
BLOCK
  5
12B
100
AcDbEntity
  8
0_0
 62
     7
100
AcDbBlockBegin
  2
AI9-BLK32
 70
     0
 10
0.0
 20
0.0
 30
0.0
  3
AI9-BLK32
  1

  0
CIRCLE
  5
12C
100
AcDbEntity
  8
0_0
 62
     7
100
AcDbCircle
 10
0.0
 20
-0.000172
 30
0.0
 40
0.035312
  0
ENDBLK
  5
12D
100
AcDbEntity
  8
0_0
100
AcDbBlockEnd
  0
BLOCK
  5
140
100
AcDbEntity
  8
0_0
  6
AI9-LTYPE1
 62
     7
100
AcDbBlockBegin
  2
AI9-BLK33
 70
     0
 10
0.0
 20
0.0
 30
0.0
  3
AI9-BLK33
  1

  0
LINE
  5
15F
100
AcDbEntity
  8
0_0
  6
AI9-LTYPE1
 62
     7
100
AcDbLine
 10
-42.49999
 20
-27.793652
 30
0.0
 11
-42.49999
 21
9.028906
 31
0.0
  0
LINE
  5
15E
100
AcDbEntity
  8
0_0
  6
AI9-LTYPE1
 62
     7
100
AcDbLine
 10
42.49999
 20
-30.273432
 30
0.0
 11
42.49999
 21
9.028906
 31
0.0
  0
LINE
  5
15D
100
AcDbEntity
  8
0_0
  6
AI9-LTYPE1
 62
     7
100
AcDbLine
 10
-34.082588
 20
4.820033
 30
0.0
 11
34.082416
 21
4.820033
 31
0.0
  0
POLYLINE
  5
158
100
AcDbEntity
  8
0_0
  6
AI9-LTYPE1
 62
     7
100
AcDb2dPolyline
 66
     1
 10
0.0
 20
0.0
 30
0.0
 70
     1
  0
VERTEX
  5
159
100
AcDbEntity
  8
0_0
  6
AI9-LTYPE1
 62
     7
100
AcDbVertex
100
AcDb2dVertex
 10
-34.082588
 20
6.222876
 30
0.0
  0
VERTEX
  5
15A
100
AcDbEntity
  8
0_0
  6
AI9-LTYPE1
 62
     7
100
AcDbVertex
100
AcDb2dVertex
 10
-34.082588
 20
3.41719
 30
0.0
  0
VERTEX
  5
15B
100
AcDbEntity
  8
0_0
  6
AI9-LTYPE1
 62
     7
100
AcDbVertex
100
AcDb2dVertex
 10
-42.49999
 20
4.820033
 30
0.0
  0
SEQEND
  5
15C
100
AcDbEntity
  8
0_0
  6
AI9-LTYPE1
 62
     7
  0
HATCH
  5
157
100
AcDbEntity
  8
0_0
 62
     7
100
AcDbHatch
 10
0.0
 20
0.0
 30
0.0
210
0.0
220
0.0
230
1.0
  2
SOLID
 70
     1
 71
     0
 91
        1
 92
        3
 72
     0
 73
     1
 93
        3
 10
-34.082588026258676
 20
6.2228759765624995
 10
-34.082588026258676
 20
3.4171902126736109
 10
-42.499989827473954
 20
4.8200330946180552
 97
        0
 75
     0
 76
     1
 98
        1
 10
0.0
 20
0.0
  0
POLYLINE
  5
152
100
AcDbEntity
  8
0_0
  6
AI9-LTYPE1
 62
     7
100
AcDb2dPolyline
 66
     1
 10
0.0
 20
0.0
 30
0.0
 70
     1
  0
VERTEX
  5
153
100
AcDbEntity
  8
0_0
  6
AI9-LTYPE1
 62
     7
100
AcDbVertex
100
AcDb2dVertex
 10
34.082416
 20
6.222876
 30
0.0
  0
VERTEX
  5
154
100
AcDbEntity
  8
0_0
  6
AI9-LTYPE1
 62
     7
100
AcDbVertex
100
AcDb2dVertex
 10
34.082416
 20
3.41719
 30
0.0
  0
VERTEX
  5
155
100
AcDbEntity
  8
0_0
  6
AI9-LTYPE1
 62
     7
100
AcDbVertex
100
AcDb2dVertex
 10
42.49999
 20
4.820033
 30
0.0
  0
SEQEND
  5
156
100
AcDbEntity
  8
0_0
  6
AI9-LTYPE1
 62
     7
  0
HATCH
  5
151
100
AcDbEntity
  8
0_0
 62
     7
100
AcDbHatch
 10
0.0
 20
0.0
 30
0.0
210
0.0
220
0.0
230
1.0
  2
SOLID
 70
     1
 71
     0
 91
        1
 92
        3
 72
     0
 73
     1
 93
        3
 10
42.499989827473954
 20
4.8200330946180552
 10
34.082415771484371
 20
3.4171902126736109
 10
34.082415771484371
 20
6.2228759765624995
 97
        0
 75
     0
 76
     1
 98
        1
 10
0.0
 20
0.0
  0
MTEXT
  5
150
100
AcDbEntity
  8
0_0
 62
     7
100
AcDbMText
 10
-9.679599
 20
25.564518
 30
0.0
 40
20.0
 41
0.0
 71
     1
 72
     2
  1
\fTxt|b0|i0;8
  7
STD
210
0.0
220
0.0
230
1.0
 11
1.000001
 21
0.0
 31
0.0
  0
INSERT
  5
14C
100
AcDbEntity
  8
0_0
 62
     7
100
AcDbBlockReference
  2
AI9-BLK36
 10
-42.49999
 20
-29.898089
 30
0.0
  0
INSERT
  5
147
100
AcDbEntity
  8
0_0
 62
     7
100
AcDbBlockReference
  2
AI9-BLK35
 10
42.49999
 20
-32.377869
 30
0.0
  0
INSERT
  5
142
100
AcDbEntity
  8
0_0
  6
AI9-LTYPE1
 62
     7
100
AcDbBlockReference
  2
AI9-BLK34
 10
42.49999
 20
4.820205
 30
0.0
  0
ENDBLK
  5
160
100
AcDbEntity
  8
0_0
100
AcDbBlockEnd
  0
BLOCK
  5
143
100
AcDbEntity
  8
0_0
  6
AI9-LTYPE1
 62
     7
100
AcDbBlockBegin
  2
AI9-BLK34
 70
     0
 10
0.0
 20
0.0
 30
0.0
  3
AI9-BLK34
  1

  0
CIRCLE
  5
144
100
AcDbEntity
  8
0_0
 62
     7
100
AcDbCircle
 10
0.0
 20
-0.000172
 30
0.0
 40
0.035312
  0
ENDBLK
  5
145
100
AcDbEntity
  8
0_0
100
AcDbBlockEnd
  0
BLOCK
  5
148
100
AcDbEntity
  8
0_0
 62
     7
100
AcDbBlockBegin
  2
AI9-BLK35
 70
     0
 10
0.0
 20
0.0
 30
0.0
  3
AI9-BLK35
  1

  0
CIRCLE
  5
149
100
AcDbEntity
  8
0_0
 62
     7
100
AcDbCircle
 10
0.0
 20
-0.000172
 30
0.0
 40
0.035312
  0
ENDBLK
  5
14A
100
AcDbEntity
  8
0_0
100
AcDbBlockEnd
  0
BLOCK
  5
14D
100
AcDbEntity
  8
0_0
 62
     7
100
AcDbBlockBegin
  2
AI9-BLK36
 70
     0
 10
0.0
 20
0.0
 30
0.0
  3
AI9-BLK36
  1

  0
CIRCLE
  5
14E
100
AcDbEntity
  8
0_0
 62
     7
100
AcDbCircle
 10
0.0
 20
0.000172
 30
0.0
 40
0.035312
  0
ENDBLK
  5
14F
100
AcDbEntity
  8
0_0
100
AcDbBlockEnd
  0
BLOCK
  5
163
100
AcDbEntity
  8
0_0
  6
AI9-LTYPE1
 62
     7
100
AcDbBlockBegin
  2
AI9-BLK37
 70
     0
 10
0.0
 20
0.0
 30
0.0
  3
AI9-BLK37
  1

  0
LINE
  5
182
100
AcDbEntity
  8
0_0
  6
AI9-LTYPE1
 62
     7
100
AcDbLine
 10
56.89179
 20
215.000141
 30
0.0
 11
-36.276339
 21
215.000141
 31
0.0
  0
LINE
  5
181
100
AcDbEntity
  8
0_0
  6
AI9-LTYPE1
 62
     7
100
AcDbLine
 10
57.521209
 20
-214.999797
 30
0.0
 11
-36.276339
 21
-214.999797
 31
0.0
  0
LINE
  5
180
100
AcDbEntity
  8
0_0
  6
AI9-LTYPE1
 62
     7
100
AcDbLine
 10
-32.067638
 20
206.582739
 30
0.0
 11
-32.067638
 21
-206.582395
 31
0.0
  0
POLYLINE
  5
17B
100
AcDbEntity
  8
0_0
  6
AI9-LTYPE1
 62
     7
100
AcDb2dPolyline
 66
     1
 10
0.0
 20
0.0
 30
0.0
 70
     1
  0
VERTEX
  5
17C
100
AcDbEntity
  8
0_0
  6
AI9-LTYPE1
 62
     7
100
AcDbVertex
100
AcDb2dVertex
 10
-33.470653
 20
206.582739
 30
0.0
  0
VERTEX
  5
17D
100
AcDbEntity
  8
0_0
  6
AI9-LTYPE1
 62
     7
100
AcDbVertex
100
AcDb2dVertex
 10
-30.664623
 20
206.582739
 30
0.0
  0
VERTEX
  5
17E
100
AcDbEntity
  8
0_0
  6
AI9-LTYPE1
 62
     7
100
AcDbVertex
100
AcDb2dVertex
 10
-32.067638
 20
215.000141
 30
0.0
  0
SEQEND
  5
17F
100
AcDbEntity
  8
0_0
  6
AI9-LTYPE1
 62
     7
  0
HATCH
  5
17A
100
AcDbEntity
  8
0_0
 62
     7
100
AcDbHatch
 10
0.0
 20
0.0
 30
0.0
210
0.0
220
0.0
230
1.0
  2
SOLID
 70
     1
 71
     0
 91
        1
 92
        3
 72
     0
 73
     1
 93
        3
 10
-32.067637803819444
 20
215.00014105902775
 10
-30.664622667100691
 20
206.58273925781248
 10
-33.470652940538194
 20
206.58273925781248
 97
        0
 75
     0
 76
     1
 98
        1
 10
0.0
 20
0.0
  0
POLYLINE
  5
175
100
AcDbEntity
  8
0_0
  6
AI9-LTYPE1
 62
     7
100
AcDb2dPolyline
 66
     1
 10
0.0
 20
0.0
 30
0.0
 70
     1
  0
VERTEX
  5
176
100
AcDbEntity
  8
0_0
  6
AI9-LTYPE1
 62
     7
100
AcDbVertex
100
AcDb2dVertex
 10
-33.470653
 20
-206.582395
 30
0.0
  0
VERTEX
  5
177
100
AcDbEntity
  8
0_0
  6
AI9-LTYPE1
 62
     7
100
AcDbVertex
100
AcDb2dVertex
 10
-30.664623
 20
-206.582395
 30
0.0
  0
VERTEX
  5
178
100
AcDbEntity
  8
0_0
  6
AI9-LTYPE1
 62
     7
100
AcDbVertex
100
AcDb2dVertex
 10
-32.067638
 20
-214.999797
 30
0.0
  0
SEQEND
  5
179
100
AcDbEntity
  8
0_0
  6
AI9-LTYPE1
 62
     7
  0
HATCH
  5
174
100
AcDbEntity
  8
0_0
 62
     7
100
AcDbHatch
 10
0.0
 20
0.0
 30
0.0
210
0.0
220
0.0
230
1.0
  2
SOLID
 70
     1
 71
     0
 91
        1
 92
        3
 72
     0
 73
     1
 93
        3
 10
-33.470652940538194
 20
-206.58239474826388
 10
-30.664622667100691
 20
-206.58239474826388
 10
-32.067637803819444
 20
-214.99979654947916
 97
        0
 75
     0
 76
     1
 98
        1
 10
0.0
 20
0.0
  0
MTEXT
  5
173
100
AcDbEntity
  8
0_0
 62
     7
100
AcDbMText
 10
-52.812295
 20
-27.431229
 30
0.0
 40
20.0
 41
0.0
 71
     1
 72
     2
  1
\fTxt|b0|i0;430
  7
STD
210
0.0
220
0.0
230
1.0
 11
0.0
 21
1.0
 31
0.0
  0
INSERT
  5
16F
100
AcDbEntity
  8
0_0
 62
     7
100
AcDbBlockReference
  2
AI9-BLK40
 10
58.996141
 20
215.000141
 30
0.0
  0
INSERT
  5
16A
100
AcDbEntity
  8
0_0
 62
     7
100
AcDbBlockReference
  2
AI9-BLK39
 10
59.625646
 20
-214.999969
 30
0.0
  0
INSERT
  5
165
100
AcDbEntity
  8
0_0
  6
AI9-LTYPE1
 62
     7
100
AcDbBlockReference
  2
AI9-BLK38
 10
-32.067638
 20
-214.999969
 30
0.0
  0
ENDBLK
  5
183
100
AcDbEntity
  8
0_0
100
AcDbBlockEnd
  0
BLOCK
  5
166
100
AcDbEntity
  8
0_0
  6
AI9-LTYPE1
 62
     7
100
AcDbBlockBegin
  2
AI9-BLK38
 70
     0
 10
0.0
 20
0.0
 30
0.0
  3
AI9-BLK38
  1

  0
CIRCLE
  5
167
100
AcDbEntity
  8
0_0
 62
     7
100
AcDbCircle
 10
0.0
 20
0.000172
 30
0.0
 40
0.035312
  0
ENDBLK
  5
168
100
AcDbEntity
  8
0_0
100
AcDbBlockEnd
  0
BLOCK
  5
16B
100
AcDbEntity
  8
0_0
 62
     7
100
AcDbBlockBegin
  2
AI9-BLK39
 70
     0
 10
0.0
 20
0.0
 30
0.0
  3
AI9-BLK39
  1

  0
CIRCLE
  5
16C
100
AcDbEntity
  8
0_0
 62
     7
100
AcDbCircle
 10
0.0
 20
0.000172
 30
0.0
 40
0.035312
  0
ENDBLK
  5
16D
100
AcDbEntity
  8
0_0
100
AcDbBlockEnd
  0
BLOCK
  5
170
100
AcDbEntity
  8
0_0
 62
     7
100
AcDbBlockBegin
  2
AI9-BLK40
 70
     0
 10
0.0
 20
0.0
 30
0.0
  3
AI9-BLK40
  1

  0
CIRCLE
  5
171
100
AcDbEntity
  8
0_0
 62
     7
100
AcDbCircle
 10
0.0
 20
0.0
 30
0.0
 40
0.035226
  0
ENDBLK
  5
172
100
AcDbEntity
  8
0_0
100
AcDbBlockEnd
  0
BLOCK
  5
190
100
AcDbEntity
  8
0_0
 62
     7
100
AcDbBlockBegin
  2
AI9-BLK41
 70
     0
 10
0.0
 20
0.0
 30
0.0
  3
AI9-BLK41
  1

  0
INSERT
  5
192
100
AcDbEntity
  8
0_0
 62
     7
100
AcDbBlockReference
  2
AI9-BLK42
 10
0.0
 20
0.0
 30
0.0
  0
ENDBLK
  5
19B
100
AcDbEntity
  8
0_0
100
AcDbBlockEnd
  0
BLOCK
  5
193
100
AcDbEntity
  8
0_0
 62
     7
100
AcDbBlockBegin
  2
AI9-BLK42
 70
     0
 10
0.0
 20
0.0
 30
0.0
  3
AI9-BLK42
  1

  0
LINE
  5
199
100
AcDbEntity
  8
0_0
 62
     7
100
AcDbLine
 10
23.976745
 20
-24.714254
 30
0.0
 11
23.976745
 21
-0.821483
 31
0.0
  0
SPLINE
  5
198
100
AcDbEntity
  8
0_0
 62
     7
100
AcDbSpline
210
0.0
220
0.0
230
1.0
 70
     8
 71
     3
 72
     8
 73
     4
 74
     0
 42
0.00000001
 43
0.00000001
 40
0.0
 40
0.0
 40
0.0
 40
0.0
 40
1.0
 40
1.0
 40
1.0
 40
1.0
 10
-23.944016520182288
 20
10.594874403211804
 30
0.0
 10
-20.652572292751735
 20
-7.3489054361979163
 30
0.0
 10
-6.6115688747829857
 20
-21.390081108940969
 30
0.0
 10
11.332383219401041
 20
-24.681525336371525
 30
0.0
  0
SPLINE
  5
197
100
AcDbEntity
  8
0_0
 62
     7
100
AcDbSpline
210
0.0
220
0.0
230
1.0
 70
     8
 71
     3
 72
     8
 73
     4
 74
     0
 42
0.00000001
 43
0.00000001
 40
0.0
 40
0.0
 40
0.0
 40
0.0
 40
1.0
 40
1.0
 40
1.0
 40
1.0
 10
-0.3855923122829861
 20
24.714253743489582
 30
0.0
 10
0.3003261990017361
 20
11.347627766927083
 30
0.0
 10
10.657316758897569
 20
0.4921318901909722
 30
0.0
 10
23.976744927300345
 20
-0.8214830186631944
 30
0.0
  0
LINE
  5
196
100
AcDbEntity
  8
0_0
 62
     7
100
AcDbLine
 10
-0.385592
 20
24.714254
 30
0.0
 11
-23.976745
 21
24.714254
 31
0.0
  0
LINE
  5
195
100
AcDbEntity
  8
0_0
 62
     7
100
AcDbLine
 10
-23.976745
 20
10.955576
 30
0.0
 11
-23.976745
 21
24.714254
 31
0.0
  0
LINE
  5
194
100
AcDbEntity
  8
0_0
 62
     7
100
AcDbLine
 10
23.976745
 20
-24.714254
 30
0.0
 11
11.693085
 21
-24.714254
 31
0.0
  0
ENDBLK
  5
19A
100
AcDbEntity
  8
0_0
100
AcDbBlockEnd
  0
BLOCK
  5
19E
100
AcDbEntity
  8
0_0
 62
     7
100
AcDbBlockBegin
  2
AI9-BLK43
 70
     0
 10
0.0
 20
0.0
 30
0.0
  3
AI9-BLK43
  1

  0
LINE
  5
1BF
100
AcDbEntity
  8
0_0
 62
     7
100
AcDbLine
 10
15.15687
 20
-40.060948
 30
0.0
 11
15.15687
 21
39.81359
 31
0.0
  0
LINE
  5
1BE
100
AcDbEntity
  8
0_0
 62
     7
100
AcDbLine
 10
-4.843115
 20
-40.060948
 30
0.0
 11
-4.843115
 21
39.81359
 31
0.0
  0
LINE
  5
1BD
100
AcDbEntity
  8
0_0
 62
     7
100
AcDbLine
 10
-12.830569
 20
-50.039323
 30
0.0
 11
-5.561073
 21
-67.72541
 31
0.0
  0
LINE
  5
1BC
100
AcDbEntity
  8
0_0
 62
     7
100
AcDbLine
 10
-10.302214
 20
-49.091922
 30
0.0
 11
2.02451
 21
-64.251375
 31
0.0
  0
SPLINE
  5
1BB
100
AcDbEntity
  8
0_0
 62
     7
100
AcDbSpline
210
0.0
220
0.0
230
1.0
 70
     8
 71
     3
 72
    11
 73
     7
 74
     0
 42
0.00000001
 43
0.00000001
 40
0.0
 40
0.0
 40
0.0
 40
0.0
 40
1.0
 40
1.0
 40
1.0
 40
2.0
 40
2.0
 40
2.0
 40
2.0
 10
-13.957804361979166
 20
-69.504112413194434
 30
0.0
 10
1.9828247070312499
 20
-69.523749457465271
 30
0.0
 10
14.921397569444443
 20
-56.617388237847216
 30
0.0
 10
14.941034613715276
 20
-40.676931423611109
 30
0.0
 10
14.941034613715276
 20
-40.664873589409716
 30
0.0
 10
14.941034613715276
 20
-40.65281575520833
 30
0.0
 10
14.941034613715276
 20
-40.641102430555549
 30
0.0
  0
SPLINE
  5
1BA
100
AcDbEntity
  8
0_0
 62
     7
100
AcDbSpline
210
0.0
220
0.0
230
1.0
 70
     8
 71
     3
 72
    11
 73
     7
 74
     0
 42
0.00000001
 43
0.00000001
 40
0.0
 40
0.0
 40
0.0
 40
0.0
 40
1.0
 40
1.0
 40
1.0
 40
2.0
 40
2.0
 40
2.0
 40
2.0
 10
-13.957804361979166
 20
-49.503955078124996
 30
0.0
 10
-9.0630126953124996
 20
-49.523936631944437
 30
0.0
 10
-5.0787597656249996
 20
-45.571723090277771
 30
0.0
 10
-5.0589504665798604
 20
-40.676931423611109
 30
0.0
 10
-5.0587782118055555
 20
-40.664873589409716
 30
0.0
 10
-5.0587782118055555
 20
-40.65281575520833
 30
0.0
 10
-5.0587782118055555
 20
-40.641102430555549
 30
0.0
  0
LINE
  5
1B9
100
AcDbEntity
  8
0_0
 62
     7
100
AcDbLine
 10
-13.456198
 20
-46.503966
 30
0.0
 11
-13.456198
 21
-72.504102
 31
0.0
  0
LINE
  5
1B8
100
AcDbEntity
  8
0_0
 62
     7
100
AcDbLine
 10
-7.773513
 20
-47.197119
 30
0.0
 11
8.662004
 21
-58.250708
 31
0.0
  0
LINE
  5
1B7
100
AcDbEntity
  8
0_0
 62
     7
100
AcDbLine
 10
-5.561073
 20
-44.354571
 30
0.0
 11
13.086884
 21
-49.723752
 31
0.0
  0
LINE
  5
1B6
100
AcDbEntity
  8
0_0
 62
     7
100
AcDbLine
 10
-5.058778
 20
-34.641124
 30
0.0
 11
14.941035
 21
-34.641124
 31
0.0
  0
LINE
  5
1B5
100
AcDbEntity
  8
0_0
 62
     7
100
AcDbLine
 10
-5.058778
 20
-40.641102
 30
0.0
 11
14.941035
 21
-40.641102
 31
0.0
  0
SPLINE
  5
1B4
100
AcDbEntity
  8
0_0
 62
     7
100
AcDbSpline
210
0.0
220
0.0
230
1.0
 70
     8
 71
     3
 72
     8
 73
     4
 74
     0
 42
0.00000001
 43
0.00000001
 40
0.0
 40
0.0
 40
0.0
 40
0.0
 40
1.0
 40
1.0
 40
1.0
 40
1.0
 10
24.739402940538191
 20
46.50396592881944
 30
0.0
 10
21.202495659722221
 20
46.50396592881944
 30
0.0
 10
18.335487196180555
 20
43.636957465277774
 30
0.0
 10
18.335487196180555
 20
40.100222439236106
 30
0.0
  0
SPLINE
  5
1B3
100
AcDbEntity
  8
0_0
 62
     7
100
AcDbSpline
210
0.0
220
0.0
230
1.0
 70
     8
 71
     3
 72
     8
 73
     4
 74
     0
 42
0.00000001
 43
0.00000001
 40
0.0
 40
0.0
 40
0.0
 40
0.0
 40
1.0
 40
1.0
 40
1.0
 40
1.0
 10
24.739402940538191
 20
72.504101562499997
 30
0.0
 10
6.8431654188368052
 20
72.504101562499997
 30
0.0
 10
-7.6646484374999995
 20
57.996459960937493
 30
0.0
 10
-7.6646484374999995
 20
40.100222439236106
 30
0.0
  0
LINE
  5
1B2
100
AcDbEntity
  8
0_0
 62
     7
100
AcDbLine
 10
-5.058778
 20
7.359068
 30
0.0
 11
14.941035
 21
7.359068
 31
0.0
  0
LINE
  5
1B1
100
AcDbEntity
  8
0_0
 62
     7
100
AcDbLine
 10
-5.058778
 20
1.35909
 30
0.0
 11
14.941035
 21
1.35909
 31
0.0
  0
LINE
  5
1B0
100
AcDbEntity
  8
0_0
 62
     7
100
AcDbLine
 10
-5.058778
 20
-4.640888
 30
0.0
 11
14.941035
 21
-4.640888
 31
0.0
  0
LINE
  5
1AF
100
AcDbEntity
  8
0_0
 62
     7
100
AcDbLine
 10
-5.058778
 20
-10.640866
 30
0.0
 11
14.941035
 21
-10.640866
 31
0.0
  0
LINE
  5
1AE
100
AcDbEntity
  8
0_0
 62
     7
100
AcDbLine
 10
-5.058778
 20
-16.640845
 30
0.0
 11
14.941035
 21
-16.640845
 31
0.0
  0
LINE
  5
1AD
100
AcDbEntity
  8
0_0
 62
     7
100
AcDbLine
 10
-5.058778
 20
-22.640823
 30
0.0
 11
14.941035
 21
-22.640823
 31
0.0
  0
LINE
  5
1AC
100
AcDbEntity
  8
0_0
 62
     7
100
AcDbLine
 10
-5.058778
 20
-28.641146
 30
0.0
 11
14.941035
 21
-28.641146
 31
0.0
  0
LINE
  5
1AB
100
AcDbEntity
  8
0_0
 62
     7
100
AcDbLine
 10
-5.058778
 20
37.35896
 30
0.0
 11
14.941035
 21
37.35896
 31
0.0
  0
LINE
  5
1AA
100
AcDbEntity
  8
0_0
 62
     7
100
AcDbLine
 10
-5.058778
 20
31.358982
 30
0.0
 11
14.941035
 21
31.358982
 31
0.0
  0
LINE
  5
1A9
100
AcDbEntity
  8
0_0
 62
     7
100
AcDbLine
 10
-5.058778
 20
25.359003
 30
0.0
 11
14.941035
 21
25.359003
 31
0.0
  0
LINE
  5
1A8
100
AcDbEntity
  8
0_0
 62
     7
100
AcDbLine
 10
-5.058778
 20
19.359025
 30
0.0
 11
14.941035
 21
19.359025
 31
0.0
  0
LINE
  5
1A7
100
AcDbEntity
  8
0_0
 62
     7
100
AcDbLine
 10
-5.058778
 20
13.359047
 30
0.0
 11
14.941035
 21
13.359047
 31
0.0
  0
LINE
  5
1A6
100
AcDbEntity
  8
0_0
 62
     7
100
AcDbLine
 10
-7.664648
 20
40.100222
 30
0.0
 11
18.335487
 21
40.100222
 31
0.0
  0
LINE
  5
1A5
100
AcDbEntity
  8
0_0
 62
     7
100
AcDbLine
 10
24.739403
 20
46.503966
 30
0.0
 11
24.739403
 21
72.504102
 31
0.0
  0
LINE
  5
1A4
100
AcDbEntity
  8
0_0
 62
     7
100
AcDbLine
 10
25.503008
 20
50.638081
 30
0.0
 11
45.283369
 21
50.638081
 31
0.0
  0
LINE
  5
1A3
100
AcDbEntity
  8
0_0
 62
     7
100
AcDbLine
 10
25.503008
 20
70.637893
 30
0.0
 11
30.777794
 21
70.637893
 31
0.0
  0
SPLINE
  5
1A2
100
AcDbEntity
  8
0_0
 62
     7
100
AcDbSpline
210
0.0
220
0.0
230
1.0
 70
     8
 71
     3
 72
     8
 73
     4
 74
     0
 42
0.00000001
 43
0.00000001
 40
0.0
 40
0.0
 40
0.0
 40
0.0
 40
1.0
 40
1.0
 40
1.0
 40
1.0
 10
-45.283368598090277
 20
-40.641102430555549
 30
0.0
 10
-45.283368598090277
 20
-58.224525282118051
 30
0.0
 10
-31.039621310763884
 20
-72.484120008680549
 30
0.0
 10
-13.456198459201387
 20
-72.504101562499997
 30
0.0
  0
LINE
  5
1A1
100
AcDbEntity
  8
0_0
 62
     7
100
AcDbLine
 10
-45.283369
 20
-40.641102
 30
0.0
 11
-19.283577
 21
-40.641102
 31
0.0
  0
LINE
  5
1A0
100
AcDbEntity
  8
0_0
 62
     7
100
AcDbLine
 10
-41.727341
 20
-39.878358
 30
0.0
 11
-41.727341
 21
-40.641102
 31
0.0
  0
SPLINE
  5
19F
100
AcDbEntity
  8
0_0
 62
     7
100
AcDbSpline
210
0.0
220
0.0
230
1.0
 70
     8
 71
     3
 72
     8
 73
     4
 74
     0
 42
0.00000001
 43
0.00000001
 40
0.0
 40
0.0
 40
0.0
 40
0.0
 40
1.0
 40
1.0
 40
1.0
 40
1.0
 10
-19.283577473958331
 20
-40.641102430555549
 30
0.0
 10
-19.283577473958331
 20
-43.865022786458333
 30
0.0
 10
-16.680291069878471
 20
-46.48432888454861
 30
0.0
 10
-13.456198459201387
 20
-46.50396592881944
 30
0.0
  0
ENDBLK
  5
1C0
100
AcDbEntity
  8
0_0
100
AcDbBlockEnd
  0
BLOCK
  5
1C3
100
AcDbEntity
  8
0_0
 62
     7
100
AcDbBlockBegin
  2
AI9-BLK44
 70
     0
 10
0.0
 20
0.0
 30
0.0
  3
AI9-BLK44
  1

  0
LINE
  5
1E2
100
AcDbEntity
  8
0_0
  6
AI9-LTYPE1
 62
     7
100
AcDbLine
 10
-359.99999
 20
-64.034507
 30
0.0
 11
-359.99999
 21
42.789636
 31
0.0
  0
LINE
  5
1E1
100
AcDbEntity
  8
0_0
  6
AI9-LTYPE1
 62
     7
100
AcDbLine
 10
359.99999
 20
-59.274418
 30
0.0
 11
359.99999
 21
42.789636
 31
0.0
  0
LINE
  5
1E0
100
AcDbEntity
  8
0_0
  6
AI9-LTYPE1
 62
     7
100
AcDbLine
 10
-351.582588
 20
38.580763
 30
0.0
 11
351.582416
 21
38.580763
 31
0.0
  0
POLYLINE
  5
1DB
100
AcDbEntity
  8
0_0
  6
AI9-LTYPE1
 62
     7
100
AcDb2dPolyline
 66
     1
 10
0.0
 20
0.0
 30
0.0
 70
     1
  0
VERTEX
  5
1DC
100
AcDbEntity
  8
0_0
  6
AI9-LTYPE1
 62
     7
100
AcDbVertex
100
AcDb2dVertex
 10
-351.582588
 20
39.98395
 30
0.0
  0
VERTEX
  5
1DD
100
AcDbEntity
  8
0_0
  6
AI9-LTYPE1
 62
     7
100
AcDbVertex
100
AcDb2dVertex
 10
-351.582588
 20
37.17792
 30
0.0
  0
VERTEX
  5
1DE
100
AcDbEntity
  8
0_0
  6
AI9-LTYPE1
 62
     7
100
AcDbVertex
100
AcDb2dVertex
 10
-359.99999
 20
38.580763
 30
0.0
  0
SEQEND
  5
1DF
100
AcDbEntity
  8
0_0
  6
AI9-LTYPE1
 62
     7
  0
HATCH
  5
1DA
100
AcDbEntity
  8
0_0
 62
     7
100
AcDbHatch
 10
0.0
 20
0.0
 30
0.0
210
0.0
220
0.0
230
1.0
  2
SOLID
 70
     1
 71
     0
 91
        1
 92
        3
 72
     0
 73
     1
 93
        3
 10
-351.58258802625863
 20
39.983950466579856
 10
-351.58258802625863
 20
37.177920193142356
 10
-359.99998982747394
 20
38.5807630750868
 97
        0
 75
     0
 76
     1
 98
        1
 10
0.0
 20
0.0
  0
POLYLINE
  5
1D5
100
AcDbEntity
  8
0_0
  6
AI9-LTYPE1
 62
     7
100
AcDb2dPolyline
 66
     1
 10
0.0
 20
0.0
 30
0.0
 70
     1
  0
VERTEX
  5
1D6
100
AcDbEntity
  8
0_0
  6
AI9-LTYPE1
 62
     7
100
AcDbVertex
100
AcDb2dVertex
 10
351.582416
 20
39.98395
 30
0.0
  0
VERTEX
  5
1D7
100
AcDbEntity
  8
0_0
  6
AI9-LTYPE1
 62
     7
100
AcDbVertex
100
AcDb2dVertex
 10
351.582416
 20
37.17792
 30
0.0
  0
VERTEX
  5
1D8
100
AcDbEntity
  8
0_0
  6
AI9-LTYPE1
 62
     7
100
AcDbVertex
100
AcDb2dVertex
 10
359.99999
 20
38.580763
 30
0.0
  0
SEQEND
  5
1D9
100
AcDbEntity
  8
0_0
  6
AI9-LTYPE1
 62
     7
  0
HATCH
  5
1D4
100
AcDbEntity
  8
0_0
 62
     7
100
AcDbHatch
 10
0.0
 20
0.0
 30
0.0
210
0.0
220
0.0
230
1.0
  2
SOLID
 70
     1
 71
     0
 91
        1
 92
        3
 72
     0
 73
     1
 93
        3
 10
359.99998982747394
 20
38.5807630750868
 10
351.58241577148436
 20
37.177920193142356
 10
351.58241577148436
 20
39.983950466579856
 97
        0
 75
     0
 76
     1
 98
        1
 10
0.0
 20
0.0
  0
MTEXT
  5
1D3
100
AcDbEntity
  8
0_0
 62
     7
100
AcDbMText
 10
-27.431142
 20
59.325248
 30
0.0
 40
20.0
 41
0.0
 71
     1
 72
     2
  1
\fTxt|b0|i0;720
  7
STD
210
0.0
220
0.0
230
1.0
 11
1.000001
 21
0.0
 31
0.0
  0
INSERT
  5
1CF
100
AcDbEntity
  8
0_0
 62
     7
100
AcDbBlockReference
  2
AI9-BLK47
 10
-359.99999
 20
-66.138599
 30
0.0
  0
INSERT
  5
1CA
100
AcDbEntity
  8
0_0
 62
     7
100
AcDbBlockReference
  2
AI9-BLK46
 10
359.99999
 20
-61.378855
 30
0.0
  0
INSERT
  5
1C5
100
AcDbEntity
  8
0_0
 62
     7
100
AcDbBlockReference
  2
AI9-BLK45
 10
359.99999
 20
38.580935
 30
0.0
  0
ENDBLK
  5
1E3
100
AcDbEntity
  8
0_0
100
AcDbBlockEnd
  0
BLOCK
  5
1C6
100
AcDbEntity
  8
0_0
 62
     7
100
AcDbBlockBegin
  2
AI9-BLK45
 70
     0
 10
0.0
 20
0.0
 30
0.0
  3
AI9-BLK45
  1

  0
CIRCLE
  5
1C7
100
AcDbEntity
  8
0_0
 62
     7
100
AcDbCircle
 10
0.0
 20
-0.000172
 30
0.0
 40
0.035312
  0
ENDBLK
  5
1C8
100
AcDbEntity
  8
0_0
100
AcDbBlockEnd
  0
BLOCK
  5
1CB
100
AcDbEntity
  8
0_0
 62
     7
100
AcDbBlockBegin
  2
AI9-BLK46
 70
     0
 10
0.0
 20
0.0
 30
0.0
  3
AI9-BLK46
  1

  0
CIRCLE
  5
1CC
100
AcDbEntity
  8
0_0
 62
     7
100
AcDbCircle
 10
0.0
 20
-0.000172
 30
0.0
 40
0.035312
  0
ENDBLK
  5
1CD
100
AcDbEntity
  8
0_0
100
AcDbBlockEnd
  0
BLOCK
  5
1D0
100
AcDbEntity
  8
0_0
 62
     7
100
AcDbBlockBegin
  2
AI9-BLK47
 70
     0
 10
0.0
 20
0.0
 30
0.0
  3
AI9-BLK47
  1

  0
CIRCLE
  5
1D1
100
AcDbEntity
  8
0_0
 62
     7
100
AcDbCircle
 10
0.0
 20
-0.000172
 30
0.0
 40
0.035312
  0
ENDBLK
  5
1D2
100
AcDbEntity
  8
0_0
100
AcDbBlockEnd
  0
BLOCK
  5
1E7
100
AcDbEntity
  8
0_0
 62
     7
100
AcDbBlockBegin
  2
AI9-BLK48
 70
     0
 10
0.0
 20
0.0
 30
0.0
  3
AI9-BLK48
  1

  0
LINE
  5
206
100
AcDbEntity
  8
0_0
  6
AI9-LTYPE1
 62
     7
100
AcDbLine
 10
-11.98721
 20
29.999719
 30
0.0
 11
23.893632
 21
29.999719
 31
0.0
  0
LINE
  5
205
100
AcDbEntity
  8
0_0
  6
AI9-LTYPE1
 62
     7
100
AcDbLine
 10
-23.436812
 20
-30.000064
 30
0.0
 11
23.893632
 21
-30.000064
 31
0.0
  0
LINE
  5
204
100
AcDbEntity
  8
0_0
  6
AI9-LTYPE1
 62
     7
100
AcDbLine
 10
19.684931
 20
21.582317
 30
0.0
 11
19.684931
 21
-21.582662
 31
0.0
  0
POLYLINE
  5
1FF
100
AcDbEntity
  8
0_0
  6
AI9-LTYPE1
 62
     7
100
AcDb2dPolyline
 66
     1
 10
0.0
 20
0.0
 30
0.0
 70
     1
  0
VERTEX
  5
200
100
AcDbEntity
  8
0_0
  6
AI9-LTYPE1
 62
     7
100
AcDbVertex
100
AcDb2dVertex
 10
18.281916
 20
21.582317
 30
0.0
  0
VERTEX
  5
201
100
AcDbEntity
  8
0_0
  6
AI9-LTYPE1
 62
     7
100
AcDbVertex
100
AcDb2dVertex
 10
21.087774
 20
21.582317
 30
0.0
  0
VERTEX
  5
202
100
AcDbEntity
  8
0_0
  6
AI9-LTYPE1
 62
     7
100
AcDbVertex
100
AcDb2dVertex
 10
19.684931
 20
29.999719
 30
0.0
  0
SEQEND
  5
203
100
AcDbEntity
  8
0_0
  6
AI9-LTYPE1
 62
     7
  0
HATCH
  5
1FE
100
AcDbEntity
  8
0_0
 62
     7
100
AcDbHatch
 10
0.0
 20
0.0
 30
0.0
210
0.0
220
0.0
230
1.0
  2
SOLID
 70
     1
 71
     0
 91
        1
 92
        3
 72
     0
 73
     1
 93
        3
 10
19.684931098090274
 20
29.999719238281248
 10
21.087773980034719
 20
21.582317437065971
 10
18.281915961371528
 20
21.582317437065971
 97
        0
 75
     0
 76
     1
 98
        1
 10
0.0
 20
0.0
  0
POLYLINE
  5
1F9
100
AcDbEntity
  8
0_0
  6
AI9-LTYPE1
 62
     7
100
AcDb2dPolyline
 66
     1
 10
0.0
 20
0.0
 30
0.0
 70
     1
  0
VERTEX
  5
1FA
100
AcDbEntity
  8
0_0
  6
AI9-LTYPE1
 62
     7
100
AcDbVertex
100
AcDb2dVertex
 10
18.281916
 20
-21.582662
 30
0.0
  0
VERTEX
  5
1FB
100
AcDbEntity
  8
0_0
  6
AI9-LTYPE1
 62
     7
100
AcDbVertex
100
AcDb2dVertex
 10
21.087774
 20
-21.582662
 30
0.0
  0
VERTEX
  5
1FC
100
AcDbEntity
  8
0_0
  6
AI9-LTYPE1
 62
     7
100
AcDbVertex
100
AcDb2dVertex
 10
19.684931
 20
-30.000064
 30
0.0
  0
SEQEND
  5
1FD
100
AcDbEntity
  8
0_0
  6
AI9-LTYPE1
 62
     7
  0
HATCH
  5
1F8
100
AcDbEntity
  8
0_0
 62
     7
100
AcDbHatch
 10
0.0
 20
0.0
 30
0.0
210
0.0
220
0.0
230
1.0
  2
SOLID
 70
     1
 71
     0
 91
        1
 92
        3
 72
     0
 73
     1
 93
        3
 10
18.281915961371528
 20
-21.582661946614582
 10
21.087773980034719
 20
-21.582661946614582
 10
19.684931098090274
 20
-30.000063747829859
 97
        0
 75
     0
 76
     1
 98
        1
 10
0.0
 20
0.0
  0
MTEXT
  5
1F7
100
AcDbEntity
  8
0_0
 62
     7
100
AcDbMText
 10
-1.059898
 20
-9.679858
 30
0.0
 40
20.0
 41
0.0
 71
     1
 72
     2
  1
\fTxt|b0|i0;6
  7
STD
210
0.0
220
0.0
230
1.0
 11
0.0
 21
1.0
 31
0.0
  0
INSERT
  5
1F3
100
AcDbEntity
  8
0_0
 62
     7
100
AcDbBlockReference
  2
AI9-BLK51
 10
-14.091646
 20
29.999891
 30
0.0
  0
INSERT
  5
1EE
100
AcDbEntity
  8
0_0
 62
     7
100
AcDbBlockReference
  2
AI9-BLK50
 10
-25.541249
 20
-29.999891
 30
0.0
  0
INSERT
  5
1E9
100
AcDbEntity
  8
0_0
 62
     7
100
AcDbBlockReference
  2
AI9-BLK49
 10
19.684845
 20
-29.999891
 30
0.0
  0
ENDBLK
  5
207
100
AcDbEntity
  8
0_0
100
AcDbBlockEnd
  0
BLOCK
  5
1EA
100
AcDbEntity
  8
0_0
 62
     7
100
AcDbBlockBegin
  2
AI9-BLK49
 70
     0
 10
0.0
 20
0.0
 30
0.0
  3
AI9-BLK49
  1

  0
CIRCLE
  5
1EB
100
AcDbEntity
  8
0_0
 62
     7
100
AcDbCircle
 10
0.0
 20
-0.000172
 30
0.0
 40
0.035226
  0
ENDBLK
  5
1EC
100
AcDbEntity
  8
0_0
100
AcDbBlockEnd
  0
BLOCK
  5
1EF
100
AcDbEntity
  8
0_0
 62
     7
100
AcDbBlockBegin
  2
AI9-BLK50
 70
     0
 10
0.0
 20
0.0
 30
0.0
  3
AI9-BLK50
  1

  0
CIRCLE
  5
1F0
100
AcDbEntity
  8
0_0
 62
     7
100
AcDbCircle
 10
0.0
 20
-0.000172
 30
0.0
 40
0.035312
  0
ENDBLK
  5
1F1
100
AcDbEntity
  8
0_0
100
AcDbBlockEnd
  0
BLOCK
  5
1F4
100
AcDbEntity
  8
0_0
 62
     7
100
AcDbBlockBegin
  2
AI9-BLK51
 70
     0
 10
0.0
 20
0.0
 30
0.0
  3
AI9-BLK51
  1

  0
CIRCLE
  5
1F5
100
AcDbEntity
  8
0_0
 62
     7
100
AcDbCircle
 10
0.0
 20
-0.000172
 30
0.0
 40
0.035312
  0
ENDBLK
  5
1F6
100
AcDbEntity
  8
0_0
100
AcDbBlockEnd
  0
BLOCK
  5
25C
100
AcDbEntity
  8
0_0
 62
     7
100
AcDbBlockBegin
  2
AI9-BLK52
 70
     0
 10
0.0
 20
0.0
 30
0.0
  3
AI9-BLK52
  1

  0
LINE
  5
263
100
AcDbEntity
  8
0_0
 62
     7
100
AcDbLine
 10
15.164105
 20
43.669514
 30
0.0
 11
-17.925349
 21
-51.621139
 31
0.0
  0
POLYLINE
  5
25E
100
AcDbEntity
  8
0_0
 62
     7
100
AcDb2dPolyline
 66
     1
 10
0.0
 20
0.0
 30
0.0
 70
     1
  0
VERTEX
  5
25F
100
AcDbEntity
  8
0_0
 62
     7
100
AcDbVertex
100
AcDb2dVertex
 10
17.925349
 20
51.621139
 30
0.0
  0
VERTEX
  5
260
100
AcDbEntity
  8
0_0
 62
     7
100
AcDbVertex
100
AcDb2dVertex
 10
16.489433
 20
43.209249
 30
0.0
  0
VERTEX
  5
261
100
AcDbEntity
  8
0_0
 62
     7
100
AcDbVertex
100
AcDb2dVertex
 10
13.838776
 20
44.129778
 30
0.0
  0
SEQEND
  5
262
100
AcDbEntity
  8
0_0
 62
     7
  0
HATCH
  5
25D
100
AcDbEntity
  8
0_0
 62
     7
100
AcDbHatch
 10
0.0
 20
0.0
 30
0.0
210
0.0
220
0.0
230
1.0
  2
SOLID
 70
     1
 71
     0
 91
        1
 92
        3
 72
     0
 73
     1
 93
        3
 10
17.925348578559028
 20
51.62113850911458
 10
16.489432779947915
 20
43.209248860677079
 10
13.838776312934026
 20
44.129778374565966
 97
        0
 75
     0
 76
     1
 98
        1
 10
0.0
 20
0.0
  0
ENDBLK
  5
264
100
AcDbEntity
  8
0_0
100
AcDbBlockEnd
  0
BLOCK
  5
280
100
AcDbEntity
  8
0_0
 62
     7
100
AcDbBlockBegin
  2
AI9-BLK53
 70
     0
 10
0.0
 20
0.0
 30
0.0
  3
AI9-BLK53
  1

  0
LINE
  5
287
100
AcDbEntity
  8
0_0
 62
     7
100
AcDbLine
 10
42.749329
 20
18.835026
 30
0.0
 11
-50.452218
 21
-22.22879
 31
0.0
  0
POLYLINE
  5
282
100
AcDbEntity
  8
0_0
 62
     7
100
AcDb2dPolyline
 66
     1
 10
0.0
 20
0.0
 30
0.0
 70
     1
  0
VERTEX
  5
283
100
AcDbEntity
  8
0_0
 62
     7
100
AcDbVertex
100
AcDb2dVertex
 10
50.452218
 20
22.22879
 30
0.0
  0
VERTEX
  5
284
100
AcDbEntity
  8
0_0
 62
     7
100
AcDbVertex
100
AcDb2dVertex
 10
43.315013
 20
17.551039
 30
0.0
  0
VERTEX
  5
285
100
AcDbEntity
  8
0_0
 62
     7
100
AcDbVertex
100
AcDb2dVertex
 10
42.183644
 20
20.118669
 30
0.0
  0
SEQEND
  5
286
100
AcDbEntity
  8
0_0
 62
     7
  0
HATCH
  5
281
100
AcDbEntity
  8
0_0
 62
     7
100
AcDbHatch
 10
0.0
 20
0.0
 30
0.0
210
0.0
220
0.0
230
1.0
  2
SOLID
 70
     1
 71
     0
 91
        1
 92
        3
 72
     0
 73
     1
 93
        3
 10
50.452217610677081
 20
22.22878960503472
 10
43.315013292100687
 20
17.551038953993054
 10
42.183643934461799
 20
20.118668619791666
 97
        0
 75
     0
 76
     1
 98
        1
 10
0.0
 20
0.0
  0
ENDBLK
  5
288
100
AcDbEntity
  8
0_0
100
AcDbBlockEnd
  0
BLOCK
  5
28C
100
AcDbEntity
  8
0_0
 62
     7
100
AcDbBlockBegin
  2
AI9-BLK54
 70
     0
 10
0.0
 20
0.0
 30
0.0
  3
AI9-BLK54
  1

  0
LINE
  5
296
100
AcDbEntity
  8
0_0
 62
     7
100
AcDbLine
 10
-47.499943
 20
9.196338
 30
0.0
 11
5.000039
 21
9.196338
 31
0.0
  0
LINE
  5
295
100
AcDbEntity
  8
0_0
 62
     7
100
AcDbLine
 10
-47.499943
 20
5.195893
 30
0.0
 11
5.000039
 21
5.195893
 31
0.0
  0
LINE
  5
294
100
AcDbEntity
  8
0_0
 62
     7
100
AcDbLine
 10
-47.499943
 20
9.196338
 30
0.0
 11
-47.499943
 21
5.195893
 31
0.0
  0
LINE
  5
293
100
AcDbEntity
  8
0_0
 62
     7
100
AcDbLine
 10
17.000168
 20
5.195893
 30
0.0
 11
47.499943
 21
5.195893
 31
0.0
  0
LINE
  5
292
100
AcDbEntity
  8
0_0
 62
     7
100
AcDbLine
 10
17.000168
 20
1.195793
 30
0.0
 11
47.499943
 21
1.195793
 31
0.0
  0
LINE
  5
291
100
AcDbEntity
  8
0_0
 62
     7
100
AcDbLine
 10
5.000039
 20
9.196338
 30
0.0
 11
17.000168
 21
5.195893
 31
0.0
  0
LINE
  5
290
100
AcDbEntity
  8
0_0
 62
     7
100
AcDbLine
 10
5.000039
 20
5.195893
 30
0.0
 11
17.000168
 21
1.195793
 31
0.0
  0
LINE
  5
28F
100
AcDbEntity
  8
0_0
 62
     7
100
AcDbLine
 10
42.500076
 20
5.195893
 30
0.0
 11
42.500076
 21
1.195793
 31
0.0
  0
LINE
  5
28E
100
AcDbEntity
  8
0_0
 62
     7
100
AcDbLine
 10
37.500037
 20
5.195893
 30
0.0
 11
37.500037
 21
-9.196338
 31
0.0
  0
LINE
  5
28D
100
AcDbEntity
  8
0_0
 62
     7
100
AcDbLine
 10
47.499943
 20
5.195893
 30
0.0
 11
47.499943
 21
-9.196338
 31
0.0
  0
ENDBLK
  5
297
100
AcDbEntity
  8
0_0
100
AcDbBlockEnd
  0
BLOCK
  5
29A
100
AcDbEntity
  8
0_0
 62
     7
100
AcDbBlockBegin
  2
AI9-BLK55
 70
     0
 10
0.0
 20
0.0
 30
0.0
  3
AI9-BLK55
  1

  0
INSERT
  5
29E
100
AcDbEntity
  8
0_0
 62
     7
100
AcDbBlockReference
  2
AI9-BLK56
 10
-9.905425
 20
24.873762
 30
0.0
  0
CIRCLE
  5
29C
100
AcDbEntity
  8
0_0
 62
     7
100
AcDbCircle
 10
32.405429
 20
-9.069903
 30
0.0
 40
25.000024
  0
CIRCLE
  5
29B
100
AcDbEntity
  8
0_0
 62
     7
100
AcDbCircle
 10
32.405429
 20
-9.069903
 30
0.0
 40
20.999924
  0
ENDBLK
  5
2AB
100
AcDbEntity
  8
0_0
100
AcDbBlockEnd
  0
BLOCK
  5
29F
100
AcDbEntity
  8
0_0
 62
     7
100
AcDbBlockBegin
  2
AI9-BLK56
 70
     0
 10
0.0
 20
0.0
 30
0.0
  3
AI9-BLK56
  1

  0
LINE
  5
2A9
100
AcDbEntity
  8
0_0
 62
     7
100
AcDbLine
 10
-47.500029
 20
9.196166
 30
0.0
 11
5.000125
 21
9.196166
 31
0.0
  0
LINE
  5
2A8
100
AcDbEntity
  8
0_0
 62
     7
100
AcDbLine
 10
-47.500029
 20
5.196065
 30
0.0
 11
5.000125
 21
5.196065
 31
0.0
  0
LINE
  5
2A7
100
AcDbEntity
  8
0_0
 62
     7
100
AcDbLine
 10
-47.500029
 20
9.196166
 30
0.0
 11
-47.500029
 21
5.196065
 31
0.0
  0
LINE
  5
2A6
100
AcDbEntity
  8
0_0
 62
     7
100
AcDbLine
 10
17.000082
 20
5.196065
 30
0.0
 11
47.500029
 21
5.196065
 31
0.0
  0
LINE
  5
2A5
100
AcDbEntity
  8
0_0
 62
     7
100
AcDbLine
 10
17.000082
 20
1.195965
 30
0.0
 11
47.500029
 21
1.195965
 31
0.0
  0
LINE
  5
2A4
100
AcDbEntity
  8
0_0
 62
     7
100
AcDbLine
 10
5.000125
 20
9.196166
 30
0.0
 11
17.000082
 21
5.196065
 31
0.0
  0
LINE
  5
2A3
100
AcDbEntity
  8
0_0
 62
     7
100
AcDbLine
 10
5.000125
 20
5.196065
 30
0.0
 11
17.000082
 21
1.195965
 31
0.0
  0
LINE
  5
2A2
100
AcDbEntity
  8
0_0
 62
     7
100
AcDbLine
 10
42.49999
 20
5.196065
 30
0.0
 11
42.49999
 21
1.195965
 31
0.0
  0
LINE
  5
2A1
100
AcDbEntity
  8
0_0
 62
     7
100
AcDbLine
 10
37.500123
 20
5.196065
 30
0.0
 11
37.500123
 21
-9.196166
 31
0.0
  0
LINE
  5
2A0
100
AcDbEntity
  8
0_0
 62
     7
100
AcDbLine
 10
47.500029
 20
5.196065
 30
0.0
 11
47.500029
 21
-9.196166
 31
0.0
  0
ENDBLK
  5
2AA
100
AcDbEntity
  8
0_0
100
AcDbBlockEnd
  0
BLOCK
  5
2BC
100
AcDbEntity
  8
0_0
 62
     7
100
AcDbBlockBegin
  2
AI9-BLK57
 70
     0
 10
0.0
 20
0.0
 30
0.0
  3
AI9-BLK57
  1

  0
LINE
  5
2DB
100
AcDbEntity
  8
0_0
  6
AI9-LTYPE1
 62
     7
100
AcDbLine
 10
-19.258601
 20
28.500069
 30
0.0
 11
19.71542
 21
28.500069
 31
0.0
  0
LINE
  5
2DA
100
AcDbEntity
  8
0_0
  6
AI9-LTYPE1
 62
     7
100
AcDbLine
 10
-16.712158
 20
-28.500069
 30
0.0
 11
19.71542
 21
-28.500069
 31
0.0
  0
LINE
  5
2D9
100
AcDbEntity
  8
0_0
  6
AI9-LTYPE1
 62
     7
100
AcDbLine
 10
15.506547
 20
20.082323
 30
0.0
 11
15.506547
 21
-20.082667
 31
0.0
  0
POLYLINE
  5
2D4
100
AcDbEntity
  8
0_0
  6
AI9-LTYPE1
 62
     7
100
AcDb2dPolyline
 66
     1
 10
0.0
 20
0.0
 30
0.0
 70
     1
  0
VERTEX
  5
2D5
100
AcDbEntity
  8
0_0
  6
AI9-LTYPE1
 62
     7
100
AcDbVertex
100
AcDb2dVertex
 10
14.103704
 20
20.082323
 30
0.0
  0
VERTEX
  5
2D6
100
AcDbEntity
  8
0_0
  6
AI9-LTYPE1
 62
     7
100
AcDbVertex
100
AcDb2dVertex
 10
16.909562
 20
20.082323
 30
0.0
  0
VERTEX
  5
2D7
100
AcDbEntity
  8
0_0
  6
AI9-LTYPE1
 62
     7
100
AcDbVertex
100
AcDb2dVertex
 10
15.506547
 20
28.500069
 30
0.0
  0
SEQEND
  5
2D8
100
AcDbEntity
  8
0_0
  6
AI9-LTYPE1
 62
     7
  0
HATCH
  5
2D3
100
AcDbEntity
  8
0_0
 62
     7
100
AcDbHatch
 10
0.0
 20
0.0
 30
0.0
210
0.0
220
0.0
230
1.0
  2
SOLID
 70
     1
 71
     0
 91
        1
 92
        3
 72
     0
 73
     1
 93
        3
 10
15.506547037760415
 20
28.500069173177081
 10
16.909562174479166
 20
20.082322862413193
 10
14.10370415581597
 20
20.082322862413193
 97
        0
 75
     0
 76
     1
 98
        1
 10
0.0
 20
0.0
  0
POLYLINE
  5
2CE
100
AcDbEntity
  8
0_0
  6
AI9-LTYPE1
 62
     7
100
AcDb2dPolyline
 66
     1
 10
0.0
 20
0.0
 30
0.0
 70
     1
  0
VERTEX
  5
2CF
100
AcDbEntity
  8
0_0
  6
AI9-LTYPE1
 62
     7
100
AcDbVertex
100
AcDb2dVertex
 10
14.103704
 20
-20.082667
 30
0.0
  0
VERTEX
  5
2D0
100
AcDbEntity
  8
0_0
  6
AI9-LTYPE1
 62
     7
100
AcDbVertex
100
AcDb2dVertex
 10
16.909562
 20
-20.082667
 30
0.0
  0
VERTEX
  5
2D1
100
AcDbEntity
  8
0_0
  6
AI9-LTYPE1
 62
     7
100
AcDbVertex
100
AcDb2dVertex
 10
15.506547
 20
-28.500069
 30
0.0
  0
SEQEND
  5
2D2
100
AcDbEntity
  8
0_0
  6
AI9-LTYPE1
 62
     7
  0
HATCH
  5
2CD
100
AcDbEntity
  8
0_0
 62
     7
100
AcDbHatch
 10
0.0
 20
0.0
 30
0.0
210
0.0
220
0.0
230
1.0
  2
SOLID
 70
     1
 71
     0
 91
        1
 92
        3
 72
     0
 73
     1
 93
        3
 10
14.10370415581597
 20
-20.082667371961804
 10
16.909562174479166
 20
-20.082667371961804
 10
15.506547037760415
 20
-28.500069173177081
 97
        0
 75
     0
 76
     1
 98
        1
 10
0.0
 20
0.0
  0
MTEXT
  5
2CC
100
AcDbEntity
  8
0_0
 62
     7
100
AcDbMText
 10
-5.23811
 20
-9.679858
 30
0.0
 40
20.0
 41
0.0
 71
     1
 72
     2
  1
\fTxt|b0|i0;5
  7
STD
210
0.0
220
0.0
230
1.0
 11
0.0
 21
1.0
 31
0.0
  0
INSERT
  5
2C8
100
AcDbEntity
  8
0_0
 62
     7
100
AcDbBlockReference
  2
AI9-BLK60
 10
-21.363037
 20
28.499897
 30
0.0
  0
INSERT
  5
2C3
100
AcDbEntity
  8
0_0
 62
     7
100
AcDbBlockReference
  2
AI9-BLK59
 10
-18.816595
 20
-28.499897
 30
0.0
  0
INSERT
  5
2BE
100
AcDbEntity
  8
0_0
 62
     7
100
AcDbBlockReference
  2
AI9-BLK58
 10
15.506633
 20
-28.499897
 30
0.0
  0
ENDBLK
  5
2DC
100
AcDbEntity
  8
0_0
100
AcDbBlockEnd
  0
BLOCK
  5
2BF
100
AcDbEntity
  8
0_0
 62
     7
100
AcDbBlockBegin
  2
AI9-BLK58
 70
     0
 10
0.0
 20
0.0
 30
0.0
  3
AI9-BLK58
  1

  0
CIRCLE
  5
2C0
100
AcDbEntity
  8
0_0
 62
     7
100
AcDbCircle
 10
0.0
 20
-0.000172
 30
0.0
 40
0.035226
  0
ENDBLK
  5
2C1
100
AcDbEntity
  8
0_0
100
AcDbBlockEnd
  0
BLOCK
  5
2C4
100
AcDbEntity
  8
0_0
 62
     7
100
AcDbBlockBegin
  2
AI9-BLK59
 70
     0
 10
0.0
 20
0.0
 30
0.0
  3
AI9-BLK59
  1

  0
CIRCLE
  5
2C5
100
AcDbEntity
  8
0_0
 62
     7
100
AcDbCircle
 10
0.0
 20
-0.000172
 30
0.0
 40
0.035312
  0
ENDBLK
  5
2C6
100
AcDbEntity
  8
0_0
100
AcDbBlockEnd
  0
BLOCK
  5
2C9
100
AcDbEntity
  8
0_0
 62
     7
100
AcDbBlockBegin
  2
AI9-BLK60
 70
     0
 10
0.0
 20
0.0
 30
0.0
  3
AI9-BLK60
  1

  0
CIRCLE
  5
2CA
100
AcDbEntity
  8
0_0
 62
     7
100
AcDbCircle
 10
0.0
 20
0.000172
 30
0.0
 40
0.035312
  0
ENDBLK
  5
2CB
100
AcDbEntity
  8
0_0
100
AcDbBlockEnd
  0
BLOCK
  5
2F1
100
AcDbEntity
  8
0_0
 62
     7
100
AcDbBlockBegin
  2
AI9-BLK61
 70
     0
 10
0.0
 20
0.0
 30
0.0
  3
AI9-BLK61
  1

  0
POLYLINE
  5
2F2
100
AcDbEntity
  8
0_0
 62
     7
100
AcDb2dPolyline
 66
     1
 10
0.0
 20
0.0
 30
0.0
 70
     1
  0
VERTEX
  5
2F3
100
AcDbEntity
  8
0_0
 62
     7
100
AcDbVertex
100
AcDb2dVertex
 10
-1.703169
 20
57.860723
 30
0.0
  0
VERTEX
  5
2F4
100
AcDbEntity
  8
0_0
 62
     7
100
AcDbVertex
100
AcDb2dVertex
 10
1.703169
 20
57.860723
 30
0.0
  0
VERTEX
  5
2F5
100
AcDbEntity
  8
0_0
 62
     7
100
AcDbVertex
100
AcDb2dVertex
 10
1.703169
 20
-57.860723
 30
0.0
  0
VERTEX
  5
2F6
100
AcDbEntity
  8
0_0
 62
     7
100
AcDbVertex
100
AcDb2dVertex
 10
-1.703169
 20
-57.860723
 30
0.0
  0
SEQEND
  5
2F7
100
AcDbEntity
  8
0_0
 62
     7
  0
ENDBLK
  5
2F8
100
AcDbEntity
  8
0_0
100
AcDbBlockEnd
  0
BLOCK
  5
2FE
100
AcDbEntity
  8
0_0
 62
     7
100
AcDbBlockBegin
  2
AI9-BLK62
 70
     0
 10
0.0
 20
0.0
 30
0.0
  3
AI9-BLK62
  1

  0
LINE
  5
31D
100
AcDbEntity
  8
0_0
  6
AI9-LTYPE1
 62
     7
100
AcDbLine
 10
-150.000146
 20
-9.086698
 30
0.0
 11
-150.000146
 21
-15.059115
 31
0.0
  0
LINE
  5
31C
100
AcDbEntity
  8
0_0
  6
AI9-LTYPE1
 62
     7
100
AcDbLine
 10
149.999974
 20
-9.086698
 30
0.0
 11
149.999974
 21
-15.059115
 31
0.0
  0
LINE
  5
31B
100
AcDbEntity
  8
0_0
  6
AI9-LTYPE1
 62
     7
100
AcDbLine
 10
-141.5824
 20
-10.850242
 30
0.0
 11
141.5824
 21
-10.850242
 31
0.0
  0
POLYLINE
  5
316
100
AcDbEntity
  8
0_0
  6
AI9-LTYPE1
 62
     7
100
AcDb2dPolyline
 66
     1
 10
0.0
 20
0.0
 30
0.0
 70
     1
  0
VERTEX
  5
317
100
AcDbEntity
  8
0_0
  6
AI9-LTYPE1
 62
     7
100
AcDbVertex
100
AcDb2dVertex
 10
-141.5824
 20
-9.447399
 30
0.0
  0
VERTEX
  5
318
100
AcDbEntity
  8
0_0
  6
AI9-LTYPE1
 62
     7
100
AcDbVertex
100
AcDb2dVertex
 10
-141.5824
 20
-12.253429
 30
0.0
  0
VERTEX
  5
319
100
AcDbEntity
  8
0_0
  6
AI9-LTYPE1
 62
     7
100
AcDbVertex
100
AcDb2dVertex
 10
-150.000146
 20
-10.850242
 30
0.0
  0
SEQEND
  5
31A
100
AcDbEntity
  8
0_0
  6
AI9-LTYPE1
 62
     7
  0
HATCH
  5
315
100
AcDbEntity
  8
0_0
 62
     7
100
AcDbHatch
 10
0.0
 20
0.0
 30
0.0
210
0.0
220
0.0
230
1.0
  2
SOLID
 70
     1
 71
     0
 91
        1
 92
        3
 72
     0
 73
     1
 93
        3
 10
-141.58240017361109
 20
-9.4473992241753457
 10
-141.58240017361109
 20
-12.253429497612846
 10
-150.00014648437499
 20
-10.85024210611979
 97
        0
 75
     0
 76
     1
 98
        1
 10
0.0
 20
0.0
  0
POLYLINE
  5
310
100
AcDbEntity
  8
0_0
  6
AI9-LTYPE1
 62
     7
100
AcDb2dPolyline
 66
     1
 10
0.0
 20
0.0
 30
0.0
 70
     1
  0
VERTEX
  5
311
100
AcDbEntity
  8
0_0
  6
AI9-LTYPE1
 62
     7
100
AcDbVertex
100
AcDb2dVertex
 10
141.5824
 20
-9.447399
 30
0.0
  0
VERTEX
  5
312
100
AcDbEntity
  8
0_0
  6
AI9-LTYPE1
 62
     7
100
AcDbVertex
100
AcDb2dVertex
 10
141.5824
 20
-12.253429
 30
0.0
  0
VERTEX
  5
313
100
AcDbEntity
  8
0_0
  6
AI9-LTYPE1
 62
     7
100
AcDbVertex
100
AcDb2dVertex
 10
149.999974
 20
-10.850242
 30
0.0
  0
SEQEND
  5
314
100
AcDbEntity
  8
0_0
  6
AI9-LTYPE1
 62
     7
  0
HATCH
  5
30F
100
AcDbEntity
  8
0_0
 62
     7
100
AcDbHatch
 10
0.0
 20
0.0
 30
0.0
210
0.0
220
0.0
230
1.0
  2
SOLID
 70
     1
 71
     0
 91
        1
 92
        3
 72
     0
 73
     1
 93
        3
 10
149.99997422960067
 20
-10.85024210611979
 10
141.58240017361109
 20
-12.253429497612846
 10
141.58240017361109
 20
-9.4473992241753457
 97
        0
 75
     0
 76
     1
 98
        1
 10
0.0
 20
0.0
  0
MTEXT
  5
30E
100
AcDbEntity
  8
0_0
 62
     7
100
AcDbMText
 10
-17.751544
 20
9.893898
 30
0.0
 40
20.0
 41
0.0
 71
     1
 72
     2
  1
\fTxt|b0|i0;30
  7
STD
210
0.0
220
0.0
230
1.0
 11
1.000001
 21
0.0
 31
0.0
  0
INSERT
  5
30A
100
AcDbEntity
  8
0_0
 62
     7
100
AcDbBlockReference
  2
AI9-BLK65
 10
-149.999974
 20
-6.982261
 30
0.0
  0
INSERT
  5
305
100
AcDbEntity
  8
0_0
 62
     7
100
AcDbBlockReference
  2
AI9-BLK64
 10
149.999974
 20
-6.982261
 30
0.0
  0
INSERT
  5
300
100
AcDbEntity
  8
0_0
 62
     7
100
AcDbBlockReference
  2
AI9-BLK63
 10
149.999974
 20
-10.850414
 30
0.0
  0
ENDBLK
  5
31E
100
AcDbEntity
  8
0_0
100
AcDbBlockEnd
  0
BLOCK
  5
301
100
AcDbEntity
  8
0_0
 62
     7
100
AcDbBlockBegin
  2
AI9-BLK63
 70
     0
 10
0.0
 20
0.0
 30
0.0
  3
AI9-BLK63
  1

  0
CIRCLE
  5
302
100
AcDbEntity
  8
0_0
 62
     7
100
AcDbCircle
 10
0.0
 20
0.000172
 30
0.0
 40
0.035312
  0
ENDBLK
  5
303
100
AcDbEntity
  8
0_0
100
AcDbBlockEnd
  0
BLOCK
  5
306
100
AcDbEntity
  8
0_0
 62
     7
100
AcDbBlockBegin
  2
AI9-BLK64
 70
     0
 10
0.0
 20
0.0
 30
0.0
  3
AI9-BLK64
  1

  0
CIRCLE
  5
307
100
AcDbEntity
  8
0_0
 62
     7
100
AcDbCircle
 10
0.0
 20
0.000172
 30
0.0
 40
0.035312
  0
ENDBLK
  5
308
100
AcDbEntity
  8
0_0
100
AcDbBlockEnd
  0
BLOCK
  5
30B
100
AcDbEntity
  8
0_0
 62
     7
100
AcDbBlockBegin
  2
AI9-BLK65
 70
     0
 10
0.0
 20
0.0
 30
0.0
  3
AI9-BLK65
  1

  0
CIRCLE
  5
30C
100
AcDbEntity
  8
0_0
 62
     7
100
AcDbCircle
 10
0.0
 20
0.000172
 30
0.0
 40
0.035312
  0
ENDBLK
  5
30D
100
AcDbEntity
  8
0_0
100
AcDbBlockEnd
  0
BLOCK
  5
333
100
AcDbEntity
  8
0_0
 62
     7
100
AcDbBlockBegin
  2
AI9-BLK66
 70
     0
 10
0.0
 20
0.0
 30
0.0
  3
AI9-BLK66
  1

  0
LINE
  5
352
100
AcDbEntity
  8
0_0
  6
AI9-LTYPE1
 62
     7
100
AcDbLine
 10
-150.000146
 20
-11.131706
 30
0.0
 11
-150.000146
 21
-15.059115
 31
0.0
  0
LINE
  5
351
100
AcDbEntity
  8
0_0
  6
AI9-LTYPE1
 62
     7
100
AcDbLine
 10
149.999802
 20
-11.131706
 30
0.0
 11
149.999802
 21
-15.059115
 31
0.0
  0
LINE
  5
350
100
AcDbEntity
  8
0_0
  6
AI9-LTYPE1
 62
     7
100
AcDbLine
 10
-141.582572
 20
-10.850242
 30
0.0
 11
141.5824
 21
-10.850242
 31
0.0
  0
POLYLINE
  5
34B
100
AcDbEntity
  8
0_0
  6
AI9-LTYPE1
 62
     7
100
AcDb2dPolyline
 66
     1
 10
0.0
 20
0.0
 30
0.0
 70
     1
  0
VERTEX
  5
34C
100
AcDbEntity
  8
0_0
  6
AI9-LTYPE1
 62
     7
100
AcDbVertex
100
AcDb2dVertex
 10
-141.582572
 20
-9.447399
 30
0.0
  0
VERTEX
  5
34D
100
AcDbEntity
  8
0_0
  6
AI9-LTYPE1
 62
     7
100
AcDbVertex
100
AcDb2dVertex
 10
-141.582572
 20
-12.253429
 30
0.0
  0
VERTEX
  5
34E
100
AcDbEntity
  8
0_0
  6
AI9-LTYPE1
 62
     7
100
AcDbVertex
100
AcDb2dVertex
 10
-150.000146
 20
-10.850242
 30
0.0
  0
SEQEND
  5
34F
100
AcDbEntity
  8
0_0
  6
AI9-LTYPE1
 62
     7
  0
HATCH
  5
34A
100
AcDbEntity
  8
0_0
 62
     7
100
AcDbHatch
 10
0.0
 20
0.0
 30
0.0
210
0.0
220
0.0
230
1.0
  2
SOLID
 70
     1
 71
     0
 91
        1
 92
        3
 72
     0
 73
     1
 93
        3
 10
-141.58257242838539
 20
-9.4473992241753457
 10
-141.58257242838539
 20
-12.253429497612846
 10
-150.00014648437499
 20
-10.85024210611979
 97
        0
 75
     0
 76
     1
 98
        1
 10
0.0
 20
0.0
  0
POLYLINE
  5
345
100
AcDbEntity
  8
0_0
  6
AI9-LTYPE1
 62
     7
100
AcDb2dPolyline
 66
     1
 10
0.0
 20
0.0
 30
0.0
 70
     1
  0
VERTEX
  5
346
100
AcDbEntity
  8
0_0
  6
AI9-LTYPE1
 62
     7
100
AcDbVertex
100
AcDb2dVertex
 10
141.5824
 20
-9.447399
 30
0.0
  0
VERTEX
  5
347
100
AcDbEntity
  8
0_0
  6
AI9-LTYPE1
 62
     7
100
AcDbVertex
100
AcDb2dVertex
 10
141.5824
 20
-12.253429
 30
0.0
  0
VERTEX
  5
348
100
AcDbEntity
  8
0_0
  6
AI9-LTYPE1
 62
     7
100
AcDbVertex
100
AcDb2dVertex
 10
149.999802
 20
-10.850242
 30
0.0
  0
SEQEND
  5
349
100
AcDbEntity
  8
0_0
  6
AI9-LTYPE1
 62
     7
  0
HATCH
  5
344
100
AcDbEntity
  8
0_0
 62
     7
100
AcDbHatch
 10
0.0
 20
0.0
 30
0.0
210
0.0
220
0.0
230
1.0
  2
SOLID
 70
     1
 71
     0
 91
        1
 92
        3
 72
     0
 73
     1
 93
        3
 10
149.99980197482637
 20
-10.85024210611979
 10
141.58240017361109
 20
-12.253429497612846
 10
141.58240017361109
 20
-9.4473992241753457
 97
        0
 75
     0
 76
     1
 98
        1
 10
0.0
 20
0.0
  0
MTEXT
  5
343
100
AcDbEntity
  8
0_0
 62
     7
100
AcDbMText
 10
-17.751544
 20
9.893898
 30
0.0
 40
20.0
 41
0.0
 71
     1
 72
     2
  1
\fTxt|b0|i0;30
  7
STD
210
0.0
220
0.0
230
1.0
 11
1.000001
 21
0.0
 31
0.0
  0
INSERT
  5
33F
100
AcDbEntity
  8
0_0
 62
     7
100
AcDbBlockReference
  2
AI9-BLK69
 10
-150.00006
 20
-9.027098
 30
0.0
  0
INSERT
  5
33A
100
AcDbEntity
  8
0_0
 62
     7
100
AcDbBlockReference
  2
AI9-BLK68
 10
149.999974
 20
-9.02727
 30
0.0
  0
INSERT
  5
335
100
AcDbEntity
  8
0_0
 62
     7
100
AcDbBlockReference
  2
AI9-BLK67
 10
149.999974
 20
-10.850414
 30
0.0
  0
ENDBLK
  5
353
100
AcDbEntity
  8
0_0
100
AcDbBlockEnd
  0
BLOCK
  5
336
100
AcDbEntity
  8
0_0
 62
     7
100
AcDbBlockBegin
  2
AI9-BLK67
 70
     0
 10
0.0
 20
0.0
 30
0.0
  3
AI9-BLK67
  1

  0
CIRCLE
  5
337
100
AcDbEntity
  8
0_0
 62
     7
100
AcDbCircle
 10
0.0
 20
0.000172
 30
0.0
 40
0.035312
  0
ENDBLK
  5
338
100
AcDbEntity
  8
0_0
100
AcDbBlockEnd
  0
BLOCK
  5
33B
100
AcDbEntity
  8
0_0
 62
     7
100
AcDbBlockBegin
  2
AI9-BLK68
 70
     0
 10
0.0
 20
0.0
 30
0.0
  3
AI9-BLK68
  1

  0
CIRCLE
  5
33C
100
AcDbEntity
  8
0_0
 62
     7
100
AcDbCircle
 10
0.0
 20
0.000172
 30
0.0
 40
0.035312
  0
ENDBLK
  5
33D
100
AcDbEntity
  8
0_0
100
AcDbBlockEnd
  0
BLOCK
  5
340
100
AcDbEntity
  8
0_0
 62
     7
100
AcDbBlockBegin
  2
AI9-BLK69
 70
     0
 10
0.0
 20
0.0
 30
0.0
  3
AI9-BLK69
  1

  0
CIRCLE
  5
341
100
AcDbEntity
  8
0_0
 62
     7
100
AcDbCircle
 10
0.0
 20
0.0
 30
0.0
 40
0.035226
  0
ENDBLK
  5
342
100
AcDbEntity
  8
0_0
100
AcDbBlockEnd
  0
BLOCK
  5
362
100
AcDbEntity
  8
0_0
 62
     7
100
AcDbBlockBegin
  2
AI9-BLK70
 70
     0
 10
0.0
 20
0.0
 30
0.0
  3
AI9-BLK70
  1

  0
LINE
  5
382
100
AcDbEntity
  8
0_0
  6
AI9-LTYPE1
 62
     7
100
AcDbLine
 10
36.295803
 20
-45.232467
 30
0.0
 11
36.295803
 21
33.227171
 31
0.0
  0
LINE
  5
381
100
AcDbEntity
  8
0_0
  6
AI9-LTYPE1
 62
     7
100
AcDbLine
 10
6.295223
 20
-54.472213
 30
0.0
 11
6.295223
 21
33.227171
 31
0.0
  0
LINE
  5
380
100
AcDbEntity
  8
0_0
  6
AI9-LTYPE1
 62
     7
100
AcDbLine
 10
27.878057
 20
29.018642
 30
0.0
 11
14.712969
 21
29.018642
 31
0.0
  0
LINE
  5
37F
100
AcDbEntity
  8
0_0
  6
AI9-LTYPE1
 62
     7
100
AcDbLine
 10
6.295223
 20
29.018642
 30
0.0
 11
-36.330943
 21
29.018642
 31
0.0
  0
POLYLINE
  5
37A
100
AcDbEntity
  8
0_0
  6
AI9-LTYPE1
 62
     7
100
AcDb2dPolyline
 66
     1
 10
0.0
 20
0.0
 30
0.0
 70
     1
  0
VERTEX
  5
37B
100
AcDbEntity
  8
0_0
  6
AI9-LTYPE1
 62
     7
100
AcDbVertex
100
AcDb2dVertex
 10
27.878057
 20
30.421485
 30
0.0
  0
VERTEX
  5
37C
100
AcDbEntity
  8
0_0
  6
AI9-LTYPE1
 62
     7
100
AcDbVertex
100
AcDb2dVertex
 10
27.878057
 20
27.615455
 30
0.0
  0
VERTEX
  5
37D
100
AcDbEntity
  8
0_0
  6
AI9-LTYPE1
 62
     7
100
AcDbVertex
100
AcDb2dVertex
 10
36.295803
 20
29.018642
 30
0.0
  0
SEQEND
  5
37E
100
AcDbEntity
  8
0_0
  6
AI9-LTYPE1
 62
     7
  0
HATCH
  5
379
100
AcDbEntity
  8
0_0
 62
     7
100
AcDbHatch
 10
0.0
 20
0.0
 30
0.0
210
0.0
220
0.0
230
1.0
  2
SOLID
 70
     1
 71
     0
 91
        1
 92
        3
 72
     0
 73
     1
 93
        3
 10
36.295803493923607
 20
29.018642171223956
 10
27.878057183159719
 20
27.6154547797309
 10
27.878057183159719
 20
30.4214850531684
 97
        0
 75
     0
 76
     1
 98
        1
 10
0.0
 20
0.0
  0
POLYLINE
  5
374
100
AcDbEntity
  8
0_0
  6
AI9-LTYPE1
 62
     7
100
AcDb2dPolyline
 66
     1
 10
0.0
 20
0.0
 30
0.0
 70
     1
  0
VERTEX
  5
375
100
AcDbEntity
  8
0_0
  6
AI9-LTYPE1
 62
     7
100
AcDbVertex
100
AcDb2dVertex
 10
14.712969
 20
30.421485
 30
0.0
  0
VERTEX
  5
376
100
AcDbEntity
  8
0_0
  6
AI9-LTYPE1
 62
     7
100
AcDbVertex
100
AcDb2dVertex
 10
14.712969
 20
27.615455
 30
0.0
  0
VERTEX
  5
377
100
AcDbEntity
  8
0_0
  6
AI9-LTYPE1
 62
     7
100
AcDbVertex
100
AcDb2dVertex
 10
6.295223
 20
29.018642
 30
0.0
  0
SEQEND
  5
378
100
AcDbEntity
  8
0_0
  6
AI9-LTYPE1
 62
     7
  0
HATCH
  5
373
100
AcDbEntity
  8
0_0
 62
     7
100
AcDbHatch
 10
0.0
 20
0.0
 30
0.0
210
0.0
220
0.0
230
1.0
  2
SOLID
 70
     1
 71
     0
 91
        1
 92
        3
 72
     0
 73
     1
 93
        3
 10
14.712969292534721
 20
30.4214850531684
 10
14.712969292534721
 20
27.6154547797309
 10
6.2952229817708325
 20
29.018642171223956
 97
        0
 75
     0
 76
     1
 98
        1
 10
0.0
 20
0.0
  0
MTEXT
  5
372
100
AcDbEntity
  8
0_0
 62
     7
100
AcDbMText
 10
-28.906074
 20
49.762782
 30
0.0
 40
20.0
 41
0.0
 71
     1
 72
     2
  1
\fTxt|b0|i0;3
  7
STD
210
0.0
220
0.0
230
1.0
 11
1.000001
 21
0.0
 31
0.0
  0
INSERT
  5
36E
100
AcDbEntity
  8
0_0
 62
     7
100
AcDbBlockReference
  2
AI9-BLK73
 10
36.295459
 20
-47.336559
 30
0.0
  0
INSERT
  5
369
100
AcDbEntity
  8
0_0
 62
     7
100
AcDbBlockReference
  2
AI9-BLK72
 10
6.295567
 20
-56.576305
 30
0.0
  0
INSERT
  5
364
100
AcDbEntity
  8
0_0
 62
     7
100
AcDbBlockReference
  2
AI9-BLK71
 10
6.295567
 20
29.018814
 30
0.0
  0
ENDBLK
  5
383
100
AcDbEntity
  8
0_0
100
AcDbBlockEnd
  0
BLOCK
  5
365
100
AcDbEntity
  8
0_0
 62
     7
100
AcDbBlockBegin
  2
AI9-BLK71
 70
     0
 10
0.0
 20
0.0
 30
0.0
  3
AI9-BLK71
  1

  0
CIRCLE
  5
366
100
AcDbEntity
  8
0_0
 62
     7
100
AcDbCircle
 10
0.0
 20
-0.000172
 30
0.0
 40
0.035484
  0
ENDBLK
  5
367
100
AcDbEntity
  8
0_0
100
AcDbBlockEnd
  0
BLOCK
  5
36A
100
AcDbEntity
  8
0_0
 62
     7
100
AcDbBlockBegin
  2
AI9-BLK72
 70
     0
 10
0.0
 20
0.0
 30
0.0
  3
AI9-BLK72
  1

  0
CIRCLE
  5
36B
100
AcDbEntity
  8
0_0
 62
     7
100
AcDbCircle
 10
0.0
 20
-0.000172
 30
0.0
 40
0.035484
  0
ENDBLK
  5
36C
100
AcDbEntity
  8
0_0
100
AcDbBlockEnd
  0
BLOCK
  5
36F
100
AcDbEntity
  8
0_0
 62
     7
100
AcDbBlockBegin
  2
AI9-BLK73
 70
     0
 10
0.0
 20
0.0
 30
0.0
  3
AI9-BLK73
  1

  0
CIRCLE
  5
370
100
AcDbEntity
  8
0_0
 62
     7
100
AcDbCircle
 10
0.0
 20
-0.000172
 30
0.0
 40
0.035484
  0
ENDBLK
  5
371
100
AcDbEntity
  8
0_0
100
AcDbBlockEnd
  0
BLOCK
  5
386
100
AcDbEntity
  8
0_0
  6
AI9-LTYPE1
 62
     7
100
AcDbBlockBegin
  2
AI9-BLK74
 70
     0
 10
0.0
 20
0.0
 30
0.0
  3
AI9-BLK74
  1

  0
LINE
  5
3A5
100
AcDbEntity
  8
0_0
  6
AI9-LTYPE2
 62
     7
100
AcDbLine
 10
9.278676
 20
-42.500076
 30
0.0
 11
15.059546
 21
-42.500076
 31
0.0
  0
LINE
  5
3A4
100
AcDbEntity
  8
0_0
  6
AI9-LTYPE2
 62
     7
100
AcDbLine
 10
9.983542
 20
42.499731
 30
0.0
 11
15.059546
 21
42.499731
 31
0.0
  0
LINE
  5
3A3
100
AcDbEntity
  8
0_0
  6
AI9-LTYPE2
 62
     7
100
AcDbLine
 10
10.851017
 20
-34.082674
 30
0.0
 11
10.851017
 21
34.08233
 31
0.0
  0
POLYLINE
  5
39E
100
AcDbEntity
  8
0_0
  6
AI9-LTYPE2
 62
     7
100
AcDb2dPolyline
 66
     1
 10
0.0
 20
0.0
 30
0.0
 70
     1
  0
VERTEX
  5
39F
100
AcDbEntity
  8
0_0
  6
AI9-LTYPE2
 62
     7
100
AcDbVertex
100
AcDb2dVertex
 10
9.448174
 20
-34.082674
 30
0.0
  0
VERTEX
  5
3A0
100
AcDbEntity
  8
0_0
  6
AI9-LTYPE2
 62
     7
100
AcDbVertex
100
AcDb2dVertex
 10
12.25386
 20
-34.082674
 30
0.0
  0
VERTEX
  5
3A1
100
AcDbEntity
  8
0_0
  6
AI9-LTYPE2
 62
     7
100
AcDbVertex
100
AcDb2dVertex
 10
10.851017
 20
-42.500076
 30
0.0
  0
SEQEND
  5
3A2
100
AcDbEntity
  8
0_0
  6
AI9-LTYPE2
 62
     7
  0
HATCH
  5
39D
100
AcDbEntity
  8
0_0
 62
     7
100
AcDbHatch
 10
0.0
 20
0.0
 30
0.0
210
0.0
220
0.0
230
1.0
  2
SOLID
 70
     1
 71
     0
 91
        1
 92
        3
 72
     0
 73
     1
 93
        3
 10
9.4481743706597214
 20
-34.082674153645833
 10
12.25386013454861
 20
-34.082674153645833
 10
10.851017252604166
 20
-42.50007595486111
 97
        0
 75
     0
 76
     1
 98
        1
 10
0.0
 20
0.0
  0
POLYLINE
  5
398
100
AcDbEntity
  8
0_0
  6
AI9-LTYPE2
 62
     7
100
AcDb2dPolyline
 66
     1
 10
0.0
 20
0.0
 30
0.0
 70
     1
  0
VERTEX
  5
399
100
AcDbEntity
  8
0_0
  6
AI9-LTYPE2
 62
     7
100
AcDbVertex
100
AcDb2dVertex
 10
9.448174
 20
34.08233
 30
0.0
  0
VERTEX
  5
39A
100
AcDbEntity
  8
0_0
  6
AI9-LTYPE2
 62
     7
100
AcDbVertex
100
AcDb2dVertex
 10
12.25386
 20
34.08233
 30
0.0
  0
VERTEX
  5
39B
100
AcDbEntity
  8
0_0
  6
AI9-LTYPE2
 62
     7
100
AcDbVertex
100
AcDb2dVertex
 10
10.851017
 20
42.499731
 30
0.0
  0
SEQEND
  5
39C
100
AcDbEntity
  8
0_0
  6
AI9-LTYPE2
 62
     7
  0
HATCH
  5
397
100
AcDbEntity
  8
0_0
 62
     7
100
AcDbHatch
 10
0.0
 20
0.0
 30
0.0
210
0.0
220
0.0
230
1.0
  2
SOLID
 70
     1
 71
     0
 91
        1
 92
        3
 72
     0
 73
     1
 93
        3
 10
10.851017252604166
 20
42.499731445312499
 10
12.25386013454861
 20
34.082329644097221
 10
9.4481743706597214
 20
34.082329644097221
 97
        0
 75
     0
 76
     1
 98
        1
 10
0.0
 20
0.0
  0
MTEXT
  5
396
100
AcDbEntity
  8
0_0
 62
     7
100
AcDbMText
 10
-9.893812
 20
-9.68003
 30
0.0
 40
20.0
 41
0.0
 71
     1
 72
     2
  1
\fTxt|b0|i0;8
  7
STD
210
0.0
220
0.0
230
1.0
 11
0.0
 21
1.0
 31
0.0
  0
INSERT
  5
392
100
AcDbEntity
  8
0_0
 62
     7
100
AcDbBlockReference
  2
AI9-BLK77
 10
7.174411
 20
-42.499904
 30
0.0
  0
INSERT
  5
38D
100
AcDbEntity
  8
0_0
 62
     7
100
AcDbBlockReference
  2
AI9-BLK76
 10
7.879278
 20
42.499731
 30
0.0
  0
INSERT
  5
388
100
AcDbEntity
  8
0_0
  6
AI9-LTYPE1
 62
     7
100
AcDbBlockReference
  2
AI9-BLK75
 10
10.851017
 20
42.499904
 30
0.0
  0
ENDBLK
  5
3A6
100
AcDbEntity
  8
0_0
100
AcDbBlockEnd
  0
BLOCK
  5
389
100
AcDbEntity
  8
0_0
  6
AI9-LTYPE1
 62
     7
100
AcDbBlockBegin
  2
AI9-BLK75
 70
     0
 10
0.0
 20
0.0
 30
0.0
  3
AI9-BLK75
  1

  0
CIRCLE
  5
38A
100
AcDbEntity
  8
0_0
 62
     7
100
AcDbCircle
 10
0.0
 20
-0.000172
 30
0.0
 40
0.03514
  0
ENDBLK
  5
38B
100
AcDbEntity
  8
0_0
100
AcDbBlockEnd
  0
BLOCK
  5
38E
100
AcDbEntity
  8
0_0
 62
     7
100
AcDbBlockBegin
  2
AI9-BLK76
 70
     0
 10
0.0
 20
0.0
 30
0.0
  3
AI9-BLK76
  1

  0
CIRCLE
  5
38F
100
AcDbEntity
  8
0_0
 62
     7
100
AcDbCircle
 10
0.0
 20
0.0
 30
0.0
 40
0.03514
  0
ENDBLK
  5
390
100
AcDbEntity
  8
0_0
100
AcDbBlockEnd
  0
BLOCK
  5
393
100
AcDbEntity
  8
0_0
 62
     7
100
AcDbBlockBegin
  2
AI9-BLK77
 70
     0
 10
0.0
 20
0.0
 30
0.0
  3
AI9-BLK77
  1

  0
CIRCLE
  5
394
100
AcDbEntity
  8
0_0
 62
     7
100
AcDbCircle
 10
0.0
 20
-0.000172
 30
0.0
 40
0.03514
  0
ENDBLK
  5
395
100
AcDbEntity
  8
0_0
100
AcDbBlockEnd
  0
BLOCK
  5
3C2
100
AcDbEntity
  8
0_0
  6
AI9-LTYPE2
 62
     7
100
AcDbBlockBegin
  2
AI9-BLK78
 70
     0
 10
0.0
 20
0.0
 30
0.0
  3
AI9-BLK78
  1

  0
LINE
  5
3E1
100
AcDbEntity
  8
0_0
  6
AI9-LTYPE1
 62
     7
100
AcDbLine
 10
45.000182
 20
-44.587459
 30
0.0
 11
45.000182
 21
23.342244
 31
0.0
  0
LINE
  5
3E0
100
AcDbEntity
  8
0_0
  6
AI9-LTYPE1
 62
     7
100
AcDbLine
 10
-44.999493
 20
-41.123071
 30
0.0
 11
-44.999493
 21
23.342244
 31
0.0
  0
LINE
  5
3DF
100
AcDbEntity
  8
0_0
  6
AI9-LTYPE1
 62
     7
100
AcDbLine
 10
36.582435
 20
19.133716
 30
0.0
 11
-36.582435
 21
19.133716
 31
0.0
  0
POLYLINE
  5
3DA
100
AcDbEntity
  8
0_0
  6
AI9-LTYPE1
 62
     7
100
AcDb2dPolyline
 66
     1
 10
0.0
 20
0.0
 30
0.0
 70
     1
  0
VERTEX
  5
3DB
100
AcDbEntity
  8
0_0
  6
AI9-LTYPE1
 62
     7
100
AcDbVertex
100
AcDb2dVertex
 10
36.582435
 20
20.536559
 30
0.0
  0
VERTEX
  5
3DC
100
AcDbEntity
  8
0_0
  6
AI9-LTYPE1
 62
     7
100
AcDbVertex
100
AcDb2dVertex
 10
36.582435
 20
17.730528
 30
0.0
  0
VERTEX
  5
3DD
100
AcDbEntity
  8
0_0
  6
AI9-LTYPE1
 62
     7
100
AcDbVertex
100
AcDb2dVertex
 10
45.000182
 20
19.133716
 30
0.0
  0
SEQEND
  5
3DE
100
AcDbEntity
  8
0_0
  6
AI9-LTYPE1
 62
     7
  0
HATCH
  5
3D9
100
AcDbEntity
  8
0_0
 62
     7
100
AcDbHatch
 10
0.0
 20
0.0
 30
0.0
210
0.0
220
0.0
230
1.0
  2
SOLID
 70
     1
 71
     0
 91
        1
 92
        3
 72
     0
 73
     1
 93
        3
 10
45.00018174913194
 20
19.133715820312499
 10
36.582435438368051
 20
17.730528428819444
 10
36.582435438368051
 20
20.536558702256944
 97
        0
 75
     0
 76
     1
 98
        1
 10
0.0
 20
0.0
  0
POLYLINE
  5
3D4
100
AcDbEntity
  8
0_0
  6
AI9-LTYPE1
 62
     7
100
AcDb2dPolyline
 66
     1
 10
0.0
 20
0.0
 30
0.0
 70
     1
  0
VERTEX
  5
3D5
100
AcDbEntity
  8
0_0
  6
AI9-LTYPE1
 62
     7
100
AcDbVertex
100
AcDb2dVertex
 10
-36.582435
 20
20.536559
 30
0.0
  0
VERTEX
  5
3D6
100
AcDbEntity
  8
0_0
  6
AI9-LTYPE1
 62
     7
100
AcDbVertex
100
AcDb2dVertex
 10
-36.582435
 20
17.730528
 30
0.0
  0
VERTEX
  5
3D7
100
AcDbEntity
  8
0_0
  6
AI9-LTYPE1
 62
     7
100
AcDbVertex
100
AcDb2dVertex
 10
-44.999493
 20
19.133716
 30
0.0
  0
SEQEND
  5
3D8
100
AcDbEntity
  8
0_0
  6
AI9-LTYPE1
 62
     7
  0
HATCH
  5
3D3
100
AcDbEntity
  8
0_0
 62
     7
100
AcDbHatch
 10
0.0
 20
0.0
 30
0.0
210
0.0
220
0.0
230
1.0
  2
SOLID
 70
     1
 71
     0
 91
        1
 92
        3
 72
     0
 73
     1
 93
        3
 10
-36.582435438368051
 20
20.536558702256944
 10
-36.582435438368051
 20
17.730528428819444
 10
-44.999492730034717
 20
19.133715820312499
 97
        0
 75
     0
 76
     1
 98
        1
 10
0.0
 20
0.0
  0
MTEXT
  5
3D2
100
AcDbEntity
  8
0_0
 62
     7
100
AcDbMText
 10
-9.679685
 20
39.878201
 30
0.0
 40
20.0
 41
0.0
 71
     1
 72
     2
  1
\fTxt|b0|i0;9
  7
STD
210
0.0
220
0.0
230
1.0
 11
1.000001
 21
0.0
 31
0.0
  0
INSERT
  5
3CE
100
AcDbEntity
  8
0_0
 62
     7
100
AcDbBlockReference
  2
AI9-BLK81
 10
45.000182
 20
-46.691551
 30
0.0
  0
INSERT
  5
3C9
100
AcDbEntity
  8
0_0
 62
     7
100
AcDbBlockReference
  2
AI9-BLK80
 10
-44.999837
 20
-43.227163
 30
0.0
  0
INSERT
  5
3C4
100
AcDbEntity
  8
0_0
  6
AI9-LTYPE2
 62
     7
100
AcDbBlockReference
  2
AI9-BLK79
 10
-44.999837
 20
19.133888
 30
0.0
  0
ENDBLK
  5
3E2
100
AcDbEntity
  8
0_0
100
AcDbBlockEnd
  0
BLOCK
  5
3C5
100
AcDbEntity
  8
0_0
  6
AI9-LTYPE2
 62
     7
100
AcDbBlockBegin
  2
AI9-BLK79
 70
     0
 10
0.0
 20
0.0
 30
0.0
  3
AI9-BLK79
  1

  0
CIRCLE
  5
3C6
100
AcDbEntity
  8
0_0
 62
     7
100
AcDbCircle
 10
0.0
 20
-0.000172
 30
0.0
 40
0.035484
  0
ENDBLK
  5
3C7
100
AcDbEntity
  8
0_0
100
AcDbBlockEnd
  0
BLOCK
  5
3CA
100
AcDbEntity
  8
0_0
 62
     7
100
AcDbBlockBegin
  2
AI9-BLK80
 70
     0
 10
0.0
 20
0.0
 30
0.0
  3
AI9-BLK80
  1

  0
CIRCLE
  5
3CB
100
AcDbEntity
  8
0_0
 62
     7
100
AcDbCircle
 10
0.0
 20
-0.000172
 30
0.0
 40
0.035484
  0
ENDBLK
  5
3CC
100
AcDbEntity
  8
0_0
100
AcDbBlockEnd
  0
BLOCK
  5
3CF
100
AcDbEntity
  8
0_0
 62
     7
100
AcDbBlockBegin
  2
AI9-BLK81
 70
     0
 10
0.0
 20
0.0
 30
0.0
  3
AI9-BLK81
  1

  0
CIRCLE
  5
3D0
100
AcDbEntity
  8
0_0
 62
     7
100
AcDbCircle
 10
0.0
 20
-0.000172
 30
0.0
 40
0.03514
  0
ENDBLK
  5
3D1
100
AcDbEntity
  8
0_0
100
AcDbBlockEnd
  0
BLOCK
  5
3E5
100
AcDbEntity
  8
0_0
  6
AI9-LTYPE1
 62
     7
100
AcDbBlockBegin
  2
AI9-BLK82
 70
     0
 10
0.0
 20
0.0
 30
0.0
  3
AI9-BLK82
  1

  0
LINE
  5
404
100
AcDbEntity
  8
0_0
  6
AI9-LTYPE1
 62
     7
100
AcDbLine
 10
9.913607
 20
-60.000127
 30
0.0
 11
6.641455
 21
-60.000127
 31
0.0
  0
LINE
  5
403
100
AcDbEntity
  8
0_0
  6
AI9-LTYPE1
 62
     7
100
AcDbLine
 10
9.913607
 20
59.999783
 30
0.0
 11
6.641455
 21
59.999783
 31
0.0
  0
LINE
  5
402
100
AcDbEntity
  8
0_0
  6
AI9-LTYPE1
 62
     7
100
AcDbLine
 10
10.850673
 20
-51.582726
 30
0.0
 11
10.850673
 21
51.582381
 31
0.0
  0
POLYLINE
  5
3FD
100
AcDbEntity
  8
0_0
  6
AI9-LTYPE1
 62
     7
100
AcDb2dPolyline
 66
     1
 10
0.0
 20
0.0
 30
0.0
 70
     1
  0
VERTEX
  5
3FE
100
AcDbEntity
  8
0_0
  6
AI9-LTYPE1
 62
     7
100
AcDbVertex
100
AcDb2dVertex
 10
9.44783
 20
-51.582726
 30
0.0
  0
VERTEX
  5
3FF
100
AcDbEntity
  8
0_0
  6
AI9-LTYPE1
 62
     7
100
AcDbVertex
100
AcDb2dVertex
 10
12.253516
 20
-51.582726
 30
0.0
  0
VERTEX
  5
400
100
AcDbEntity
  8
0_0
  6
AI9-LTYPE1
 62
     7
100
AcDbVertex
100
AcDb2dVertex
 10
10.850673
 20
-60.000127
 30
0.0
  0
SEQEND
  5
401
100
AcDbEntity
  8
0_0
  6
AI9-LTYPE1
 62
     7
  0
HATCH
  5
3FC
100
AcDbEntity
  8
0_0
 62
     7
100
AcDbHatch
 10
0.0
 20
0.0
 30
0.0
210
0.0
220
0.0
230
1.0
  2
SOLID
 70
     1
 71
     0
 91
        1
 92
        3
 72
     0
 73
     1
 93
        3
 10
9.44782986111111
 20
-51.582725694444441
 10
12.253515624999999
 20
-51.582725694444441
 10
10.850672743055554
 20
-60.000127495659719
 97
        0
 75
     0
 76
     1
 98
        1
 10
0.0
 20
0.0
  0
POLYLINE
  5
3F7
100
AcDbEntity
  8
0_0
  6
AI9-LTYPE1
 62
     7
100
AcDb2dPolyline
 66
     1
 10
0.0
 20
0.0
 30
0.0
 70
     1
  0
VERTEX
  5
3F8
100
AcDbEntity
  8
0_0
  6
AI9-LTYPE1
 62
     7
100
AcDbVertex
100
AcDb2dVertex
 10
9.44783
 20
51.582381
 30
0.0
  0
VERTEX
  5
3F9
100
AcDbEntity
  8
0_0
  6
AI9-LTYPE1
 62
     7
100
AcDbVertex
100
AcDb2dVertex
 10
12.253516
 20
51.582381
 30
0.0
  0
VERTEX
  5
3FA
100
AcDbEntity
  8
0_0
  6
AI9-LTYPE1
 62
     7
100
AcDbVertex
100
AcDb2dVertex
 10
10.850673
 20
59.999783
 30
0.0
  0
SEQEND
  5
3FB
100
AcDbEntity
  8
0_0
  6
AI9-LTYPE1
 62
     7
  0
HATCH
  5
3F6
100
AcDbEntity
  8
0_0
 62
     7
100
AcDbHatch
 10
0.0
 20
0.0
 30
0.0
210
0.0
220
0.0
230
1.0
  2
SOLID
 70
     1
 71
     0
 91
        1
 92
        3
 72
     0
 73
     1
 93
        3
 10
10.850672743055554
 20
59.999782986111107
 10
12.253515624999999
 20
51.58238118489583
 10
9.44782986111111
 20
51.58238118489583
 97
        0
 75
     0
 76
     1
 98
        1
 10
0.0
 20
0.0
  0
MTEXT
  5
3F5
100
AcDbEntity
  8
0_0
 62
     7
100
AcDbMText
 10
-9.893812
 20
-16.137517
 30
0.0
 40
20.0
 41
0.0
 71
     1
 72
     2
  1
\fTxt|b0|i0;12
  7
STD
210
0.0
220
0.0
230
1.0
 11
0.0
 21
1.0
 31
0.0
  0
INSERT
  5
3F1
100
AcDbEntity
  8
0_0
 62
     7
100
AcDbBlockReference
  2
AI9-BLK85
 10
12.017871
 20
-59.999955
 30
0.0
  0
INSERT
  5
3EC
100
AcDbEntity
  8
0_0
 62
     7
100
AcDbBlockReference
  2
AI9-BLK84
 10
12.017871
 20
59.999955
 30
0.0
  0
INSERT
  5
3E7
100
AcDbEntity
  8
0_0
  6
AI9-LTYPE1
 62
     7
100
AcDbBlockReference
  2
AI9-BLK83
 10
10.850328
 20
59.999955
 30
0.0
  0
ENDBLK
  5
405
100
AcDbEntity
  8
0_0
100
AcDbBlockEnd
  0
BLOCK
  5
3E8
100
AcDbEntity
  8
0_0
  6
AI9-LTYPE1
 62
     7
100
AcDbBlockBegin
  2
AI9-BLK83
 70
     0
 10
0.0
 20
0.0
 30
0.0
  3
AI9-BLK83
  1

  0
CIRCLE
  5
3E9
100
AcDbEntity
  8
0_0
 62
     7
100
AcDbCircle
 10
0.0
 20
-0.000172
 30
0.0
 40
0.035484
  0
ENDBLK
  5
3EA
100
AcDbEntity
  8
0_0
100
AcDbBlockEnd
  0
BLOCK
  5
3ED
100
AcDbEntity
  8
0_0
 62
     7
100
AcDbBlockBegin
  2
AI9-BLK84
 70
     0
 10
0.0
 20
0.0
 30
0.0
  3
AI9-BLK84
  1

  0
CIRCLE
  5
3EE
100
AcDbEntity
  8
0_0
 62
     7
100
AcDbCircle
 10
0.0
 20
-0.000172
 30
0.0
 40
0.03514
  0
ENDBLK
  5
3EF
100
AcDbEntity
  8
0_0
100
AcDbBlockEnd
  0
BLOCK
  5
3F2
100
AcDbEntity
  8
0_0
 62
     7
100
AcDbBlockBegin
  2
AI9-BLK85
 70
     0
 10
0.0
 20
0.0
 30
0.0
  3
AI9-BLK85
  1

  0
CIRCLE
  5
3F3
100
AcDbEntity
  8
0_0
 62
     7
100
AcDbCircle
 10
0.0
 20
-0.000172
 30
0.0
 40
0.03514
  0
ENDBLK
  5
3F4
100
AcDbEntity
  8
0_0
100
AcDbBlockEnd
  0
BLOCK
  5
408
100
AcDbEntity
  8
0_0
  6
AI9-LTYPE1
 62
     7
100
AcDbBlockBegin
  2
AI9-BLK86
 70
     0
 10
0.0
 20
0.0
 30
0.0
  3
AI9-BLK86
  1

  0
LINE
  5
427
100
AcDbEntity
  8
0_0
  6
AI9-LTYPE1
 62
     7
100
AcDbLine
 10
-295.000081
 20
-112.643167
 30
0.0
 11
-295.000081
 21
91.39778
 31
0.0
  0
LINE
  5
426
100
AcDbEntity
  8
0_0
  6
AI9-LTYPE1
 62
     7
100
AcDbLine
 10
295.000081
 20
-11.293626
 30
0.0
 11
295.000081
 21
91.39778
 31
0.0
  0
LINE
  5
425
100
AcDbEntity
  8
0_0
  6
AI9-LTYPE1
 62
     7
100
AcDbLine
 10
-286.582335
 20
87.188907
 30
0.0
 11
286.582335
 21
87.188907
 31
0.0
  0
POLYLINE
  5
420
100
AcDbEntity
  8
0_0
  6
AI9-LTYPE1
 62
     7
100
AcDb2dPolyline
 66
     1
 10
0.0
 20
0.0
 30
0.0
 70
     1
  0
VERTEX
  5
421
100
AcDbEntity
  8
0_0
  6
AI9-LTYPE1
 62
     7
100
AcDbVertex
100
AcDb2dVertex
 10
-286.582335
 20
88.592095
 30
0.0
  0
VERTEX
  5
422
100
AcDbEntity
  8
0_0
  6
AI9-LTYPE1
 62
     7
100
AcDbVertex
100
AcDb2dVertex
 10
-286.582335
 20
85.786064
 30
0.0
  0
VERTEX
  5
423
100
AcDbEntity
  8
0_0
  6
AI9-LTYPE1
 62
     7
100
AcDbVertex
100
AcDb2dVertex
 10
-295.000081
 20
87.188907
 30
0.0
  0
SEQEND
  5
424
100
AcDbEntity
  8
0_0
  6
AI9-LTYPE1
 62
     7
  0
HATCH
  5
41F
100
AcDbEntity
  8
0_0
 62
     7
100
AcDbHatch
 10
0.0
 20
0.0
 30
0.0
210
0.0
220
0.0
230
1.0
  2
SOLID
 70
     1
 71
     0
 91
        1
 92
        3
 72
     0
 73
     1
 93
        3
 10
-286.58233506944441
 20
88.592094590928809
 10
-286.58233506944441
 20
85.786064317491309
 10
-295.00008138020831
 20
87.188907199435761
 97
        0
 75
     0
 76
     1
 98
        1
 10
0.0
 20
0.0
  0
POLYLINE
  5
41A
100
AcDbEntity
  8
0_0
  6
AI9-LTYPE1
 62
     7
100
AcDb2dPolyline
 66
     1
 10
0.0
 20
0.0
 30
0.0
 70
     1
  0
VERTEX
  5
41B
100
AcDbEntity
  8
0_0
  6
AI9-LTYPE1
 62
     7
100
AcDbVertex
100
AcDb2dVertex
 10
286.582335
 20
88.592095
 30
0.0
  0
VERTEX
  5
41C
100
AcDbEntity
  8
0_0
  6
AI9-LTYPE1
 62
     7
100
AcDbVertex
100
AcDb2dVertex
 10
286.582335
 20
85.786064
 30
0.0
  0
VERTEX
  5
41D
100
AcDbEntity
  8
0_0
  6
AI9-LTYPE1
 62
     7
100
AcDbVertex
100
AcDb2dVertex
 10
295.000081
 20
87.188907
 30
0.0
  0
SEQEND
  5
41E
100
AcDbEntity
  8
0_0
  6
AI9-LTYPE1
 62
     7
  0
HATCH
  5
419
100
AcDbEntity
  8
0_0
 62
     7
100
AcDbHatch
 10
0.0
 20
0.0
 30
0.0
210
0.0
220
0.0
230
1.0
  2
SOLID
 70
     1
 71
     0
 91
        1
 92
        3
 72
     0
 73
     1
 93
        3
 10
295.00008138020831
 20
87.188907199435761
 10
286.58233506944441
 20
85.786064317491309
 10
286.58233506944441
 20
88.592094590928809
 97
        0
 75
     0
 76
     1
 98
        1
 10
0.0
 20
0.0
  0
MTEXT
  5
418
100
AcDbEntity
  8
0_0
 62
     7
100
AcDbMText
 10
-27.431228
 20
107.933737
 30
0.0
 40
20.0
 41
0.0
 71
     1
 72
     2
  1
\fTxt|b0|i0;590
  7
STD
210
0.0
220
0.0
230
1.0
 11
1.000001
 21
0.0
 31
0.0
  0
INSERT
  5
414
100
AcDbEntity
  8
0_0
 62
     7
100
AcDbBlockReference
  2
AI9-BLK89
 10
-294.999737
 20
-114.74726
 30
0.0
  0
INSERT
  5
40F
100
AcDbEntity
  8
0_0
 62
     7
100
AcDbBlockReference
  2
AI9-BLK88
 10
295.000081
 20
-13.397718
 30
0.0
  0
INSERT
  5
40A
100
AcDbEntity
  8
0_0
  6
AI9-LTYPE1
 62
     7
100
AcDbBlockReference
  2
AI9-BLK87
 10
295.000081
 20
87.189079
 30
0.0
  0
ENDBLK
  5
428
100
AcDbEntity
  8
0_0
100
AcDbBlockEnd
  0
BLOCK
  5
40B
100
AcDbEntity
  8
0_0
  6
AI9-LTYPE1
 62
     7
100
AcDbBlockBegin
  2
AI9-BLK87
 70
     0
 10
0.0
 20
0.0
 30
0.0
  3
AI9-BLK87
  1

  0
CIRCLE
  5
40C
100
AcDbEntity
  8
0_0
 62
     7
100
AcDbCircle
 10
0.0
 20
-0.000172
 30
0.0
 40
0.03514
  0
ENDBLK
  5
40D
100
AcDbEntity
  8
0_0
100
AcDbBlockEnd
  0
BLOCK
  5
410
100
AcDbEntity
  8
0_0
 62
     7
100
AcDbBlockBegin
  2
AI9-BLK88
 70
     0
 10
0.0
 20
0.0
 30
0.0
  3
AI9-BLK88
  1

  0
CIRCLE
  5
411
100
AcDbEntity
  8
0_0
 62
     7
100
AcDbCircle
 10
0.0
 20
-0.000172
 30
0.0
 40
0.03514
  0
ENDBLK
  5
412
100
AcDbEntity
  8
0_0
100
AcDbBlockEnd
  0
BLOCK
  5
415
100
AcDbEntity
  8
0_0
 62
     7
100
AcDbBlockBegin
  2
AI9-BLK89
 70
     0
 10
0.0
 20
0.0
 30
0.0
  3
AI9-BLK89
  1

  0
CIRCLE
  5
416
100
AcDbEntity
  8
0_0
 62
     7
100
AcDbCircle
 10
0.0
 20
-0.000172
 30
0.0
 40
0.035484
  0
ENDBLK
  5
417
100
AcDbEntity
  8
0_0
100
AcDbBlockEnd
  0
BLOCK
  5
42D
100
AcDbEntity
  8
0_0
  6
AI9-LTYPE1
 62
     7
100
AcDbBlockBegin
  2
AI9-BLK90
 70
     0
 10
0.0
 20
0.0
 30
0.0
  3
AI9-BLK90
  1

  0
LINE
  5
434
100
AcDbEntity
  8
0_0
 62
     7
100
AcDbLine
 10
-75.964011
 20
31.889182
 30
0.0
 11
83.725294
 21
-35.147209
 31
0.0
  0
POLYLINE
  5
42F
100
AcDbEntity
  8
0_0
 62
     7
100
AcDb2dPolyline
 66
     1
 10
0.0
 20
0.0
 30
0.0
 70
     1
  0
VERTEX
  5
430
100
AcDbEntity
  8
0_0
 62
     7
100
AcDbVertex
100
AcDb2dVertex
 10
-83.725294
 20
35.147209
 30
0.0
  0
VERTEX
  5
431
100
AcDbEntity
  8
0_0
 62
     7
100
AcDbVertex
100
AcDb2dVertex
 10
-75.420892
 20
33.182815
 30
0.0
  0
VERTEX
  5
432
100
AcDbEntity
  8
0_0
 62
     7
100
AcDbVertex
100
AcDb2dVertex
 10
-76.50713
 20
30.595549
 30
0.0
  0
SEQEND
  5
433
100
AcDbEntity
  8
0_0
 62
     7
  0
HATCH
  5
42E
100
AcDbEntity
  8
0_0
 62
     7
100
AcDbHatch
 10
0.0
 20
0.0
 30
0.0
210
0.0
220
0.0
230
1.0
  2
SOLID
 70
     1
 71
     0
 91
        1
 92
        3
 72
     0
 73
     1
 93
        3
 10
-83.725294325086793
 20
35.147208658854161
 10
-75.420891655815964
 20
33.18281521267361
 10
-76.507130262586799
 20
30.595548502604164
 97
        0
 75
     0
 76
     1
 98
        1
 10
0.0
 20
0.0
  0
ENDBLK
  5
435
100
AcDbEntity
  8
0_0
100
AcDbBlockEnd
  0
BLOCK
  5
439
100
AcDbEntity
  8
0_0
 62
     7
100
AcDbBlockBegin
  2
AI9-BLK91
 70
     0
 10
0.0
 20
0.0
 30
0.0
  3
AI9-BLK91
  1

  0
LINE
  5
440
100
AcDbEntity
  8
0_0
 62
     7
100
AcDbLine
 10
19.737641
 20
17.120058
 30
0.0
 11
-26.095909
 21
-22.635311
 31
0.0
  0
POLYLINE
  5
43B
100
AcDbEntity
  8
0_0
 62
     7
100
AcDb2dPolyline
 66
     1
 10
0.0
 20
0.0
 30
0.0
 70
     1
  0
VERTEX
  5
43C
100
AcDbEntity
  8
0_0
 62
     7
100
AcDbVertex
100
AcDb2dVertex
 10
26.095909
 20
22.635311
 30
0.0
  0
VERTEX
  5
43D
100
AcDbEntity
  8
0_0
 62
     7
100
AcDbVertex
100
AcDb2dVertex
 10
20.656793
 20
16.060002
 30
0.0
  0
VERTEX
  5
43E
100
AcDbEntity
  8
0_0
 62
     7
100
AcDbVertex
100
AcDb2dVertex
 10
18.81849
 20
18.179769
 30
0.0
  0
SEQEND
  5
43F
100
AcDbEntity
  8
0_0
 62
     7
  0
HATCH
  5
43A
100
AcDbEntity
  8
0_0
 62
     7
100
AcDbHatch
 10
0.0
 20
0.0
 30
0.0
210
0.0
220
0.0
230
1.0
  2
SOLID
 70
     1
 71
     0
 91
        1
 92
        3
 72
     0
 73
     1
 93
        3
 10
26.095909288194441
 20
22.635310872395831
 10
20.656792534722221
 20
16.060001627604166
 10
18.818489583333331
 20
18.179768880208332
 97
        0
 75
     0
 76
     1
 98
        1
 10
0.0
 20
0.0
  0
ENDBLK
  5
441
100
AcDbEntity
  8
0_0
100
AcDbBlockEnd
  0
BLOCK
  5
446
100
AcDbEntity
  8
0_0
 62
     7
100
AcDbBlockBegin
  2
AI9-BLK92
 70
     0
 10
0.0
 20
0.0
 30
0.0
  3
AI9-BLK92
  1

  0
LINE
  5
44D
100
AcDbEntity
  8
0_0
 62
     7
100
AcDbLine
 10
42.749242
 20
18.835026
 30
0.0
 11
-50.452304
 21
-22.22879
 31
0.0
  0
POLYLINE
  5
448
100
AcDbEntity
  8
0_0
 62
     7
100
AcDb2dPolyline
 66
     1
 10
0.0
 20
0.0
 30
0.0
 70
     1
  0
VERTEX
  5
449
100
AcDbEntity
  8
0_0
 62
     7
100
AcDbVertex
100
AcDb2dVertex
 10
50.452304
 20
22.22879
 30
0.0
  0
VERTEX
  5
44A
100
AcDbEntity
  8
0_0
 62
     7
100
AcDbVertex
100
AcDb2dVertex
 10
43.314927
 20
17.551039
 30
0.0
  0
VERTEX
  5
44B
100
AcDbEntity
  8
0_0
 62
     7
100
AcDbVertex
100
AcDb2dVertex
 10
42.18373
 20
20.118669
 30
0.0
  0
SEQEND
  5
44C
100
AcDbEntity
  8
0_0
 62
     7
  0
HATCH
  5
447
100
AcDbEntity
  8
0_0
 62
     7
100
AcDbHatch
 10
0.0
 20
0.0
 30
0.0
210
0.0
220
0.0
230
1.0
  2
SOLID
 70
     1
 71
     0
 91
        1
 92
        3
 72
     0
 73
     1
 93
        3
 10
50.452303738064231
 20
22.22878960503472
 10
43.314927164713538
 20
17.551038953993054
 10
42.183730061848955
 20
20.118668619791666
 97
        0
 75
     0
 76
     1
 98
        1
 10
0.0
 20
0.0
  0
ENDBLK
  5
44E
100
AcDbEntity
  8
0_0
100
AcDbBlockEnd
  0
BLOCK
  5
452
100
AcDbEntity
  8
0_0
 62
     7
100
AcDbBlockBegin
  2
AI9-BLK93
 70
     0
 10
0.0
 20
0.0
 30
0.0
  3
AI9-BLK93
  1

  0
LINE
  5
459
100
AcDbEntity
  8
0_0
 62
     7
100
AcDbLine
 10
-16.089199
 20
-13.78555
 30
0.0
 11
22.481229
 21
19.262562
 31
0.0
  0
POLYLINE
  5
454
100
AcDbEntity
  8
0_0
 62
     7
100
AcDb2dPolyline
 66
     1
 10
0.0
 20
0.0
 30
0.0
 70
     1
  0
VERTEX
  5
455
100
AcDbEntity
  8
0_0
 62
     7
100
AcDbVertex
100
AcDb2dVertex
 10
-22.481229
 20
-19.262562
 30
0.0
  0
VERTEX
  5
456
100
AcDbEntity
  8
0_0
 62
     7
100
AcDbVertex
100
AcDb2dVertex
 10
-17.001977
 20
-12.720326
 30
0.0
  0
VERTEX
  5
457
100
AcDbEntity
  8
0_0
 62
     7
100
AcDbVertex
100
AcDb2dVertex
 10
-15.176421
 20
-14.850773
 30
0.0
  0
SEQEND
  5
458
100
AcDbEntity
  8
0_0
 62
     7
  0
HATCH
  5
453
100
AcDbEntity
  8
0_0
 62
     7
100
AcDbHatch
 10
0.0
 20
0.0
 30
0.0
210
0.0
220
0.0
230
1.0
  2
SOLID
 70
     1
 71
     0
 91
        1
 92
        3
 72
     0
 73
     1
 93
        3
 10
-22.481228976779512
 20
-19.262562391493052
 10
-17.001976860894096
 20
-12.720326063368054
 10
-15.176420762803819
 20
-14.850773111979166
 97
        0
 75
     0
 76
     1
 98
        1
 10
0.0
 20
0.0
  0
ENDBLK
  5
45A
100
AcDbEntity
  8
0_0
100
AcDbBlockEnd
  0
BLOCK
  5
45E
100
AcDbEntity
  8
0_0
 62
     7
100
AcDbBlockBegin
  2
AI9-BLK94
 70
     0
 10
0.0
 20
0.0
 30
0.0
  3
AI9-BLK94
  1

  0
LINE
  5
465
100
AcDbEntity
  8
0_0
 62
     7
100
AcDbLine
 10
-23.602952
 20
-3.398931
 30
0.0
 11
31.930437
 21
4.786616
 31
0.0
  0
POLYLINE
  5
460
100
AcDbEntity
  8
0_0
 62
     7
100
AcDb2dPolyline
 66
     1
 10
0.0
 20
0.0
 30
0.0
 70
     1
  0
VERTEX
  5
461
100
AcDbEntity
  8
0_0
 62
     7
100
AcDbVertex
100
AcDb2dVertex
 10
-31.930437
 20
-4.626419
 30
0.0
  0
VERTEX
  5
462
100
AcDbEntity
  8
0_0
 62
     7
100
AcDbVertex
100
AcDb2dVertex
 10
-23.807418
 20
-2.010902
 30
0.0
  0
VERTEX
  5
463
100
AcDbEntity
  8
0_0
 62
     7
100
AcDbVertex
100
AcDb2dVertex
 10
-23.398313
 20
-4.786616
 30
0.0
  0
SEQEND
  5
464
100
AcDbEntity
  8
0_0
 62
     7
  0
HATCH
  5
45F
100
AcDbEntity
  8
0_0
 62
     7
100
AcDbHatch
 10
0.0
 20
0.0
 30
0.0
210
0.0
220
0.0
230
1.0
  2
SOLID
 70
     1
 71
     0
 91
        1
 92
        3
 72
     0
 73
     1
 93
        3
 10
-31.930436876085068
 20
-4.6264187282986109
 10
-23.807418484157985
 20
-2.0109022352430554
 10
-23.398313395182289
 20
-4.786615668402777
 97
        0
 75
     0
 76
     1
 98
        1
 10
0.0
 20
0.0
  0
ENDBLK
  5
466
100
AcDbEntity
  8
0_0
100
AcDbBlockEnd
  0
BLOCK
  5
46A
100
AcDbEntity
  8
0_0
 62
     7
100
AcDbBlockBegin
  2
AI9-BLK95
 70
     0
 10
0.0
 20
0.0
 30
0.0
  3
AI9-BLK95
  1

  0
LINE
  5
471
100
AcDbEntity
  8
0_0
 62
     7
100
AcDbLine
 10
-24.648452
 20
16.529568
 30
0.0
 11
31.639585
 21
-21.217999
 31
0.0
  0
POLYLINE
  5
46C
100
AcDbEntity
  8
0_0
 62
     7
100
AcDb2dPolyline
 66
     1
 10
0.0
 20
0.0
 30
0.0
 70
     1
  0
VERTEX
  5
46D
100
AcDbEntity
  8
0_0
 62
     7
100
AcDbVertex
100
AcDb2dVertex
 10
-31.639585
 20
21.217999
 30
0.0
  0
VERTEX
  5
46E
100
AcDbEntity
  8
0_0
 62
     7
100
AcDbVertex
100
AcDb2dVertex
 10
-23.867105
 20
17.694699
 30
0.0
  0
VERTEX
  5
46F
100
AcDbEntity
  8
0_0
 62
     7
100
AcDbVertex
100
AcDb2dVertex
 10
-25.429972
 20
15.364437
 30
0.0
  0
SEQEND
  5
470
100
AcDbEntity
  8
0_0
 62
     7
  0
HATCH
  5
46B
100
AcDbEntity
  8
0_0
 62
     7
100
AcDbHatch
 10
0.0
 20
0.0
 30
0.0
210
0.0
220
0.0
230
1.0
  2
SOLID
 70
     1
 71
     0
 91
        1
 92
        3
 72
     0
 73
     1
 93
        3
 10
-31.639584689670137
 20
21.217998589409721
 10
-23.867104763454858
 20
17.694699435763887
 10
-25.429972330729164
 20
15.364436848958333
 97
        0
 75
     0
 76
     1
 98
        1
 10
0.0
 20
0.0
  0
ENDBLK
  5
472
100
AcDbEntity
  8
0_0
100
AcDbBlockEnd
  0
BLOCK
  5
476
100
AcDbEntity
  8
0_0
 62
     7
100
AcDbBlockBegin
  2
AI9-BLK96
 70
     0
 10
0.0
 20
0.0
 30
0.0
  3
AI9-BLK96
  1

  0
LINE
  5
47D
100
AcDbEntity
  8
0_0
 62
     7
100
AcDbLine
 10
-45.150043
 20
-9.649885
 30
0.0
 11
53.381582
 21
11.409295
 31
0.0
  0
POLYLINE
  5
478
100
AcDbEntity
  8
0_0
 62
     7
100
AcDb2dPolyline
 66
     1
 10
0.0
 20
0.0
 30
0.0
 70
     1
  0
VERTEX
  5
479
100
AcDbEntity
  8
0_0
 62
     7
100
AcDbVertex
100
AcDb2dVertex
 10
-53.381582
 20
-11.409295
 30
0.0
  0
VERTEX
  5
47A
100
AcDbEntity
  8
0_0
 62
     7
100
AcDbVertex
100
AcDb2dVertex
 10
-45.443393
 20
-8.278048
 30
0.0
  0
VERTEX
  5
47B
100
AcDbEntity
  8
0_0
 62
     7
100
AcDbVertex
100
AcDb2dVertex
 10
-44.856866
 20
-11.022066
 30
0.0
  0
SEQEND
  5
47C
100
AcDbEntity
  8
0_0
 62
     7
  0
HATCH
  5
477
100
AcDbEntity
  8
0_0
 62
     7
100
AcDbHatch
 10
0.0
 20
0.0
 30
0.0
210
0.0
220
0.0
230
1.0
  2
SOLID
 70
     1
 71
     0
 91
        1
 92
        3
 72
     0
 73
     1
 93
        3
 10
-53.381582302517359
 20
-11.409294976128471
 10
-45.443393283420136
 20
-8.2780476888020829
 10
-44.856865776909721
 20
-11.022066243489583
 97
        0
 75
     0
 76
     1
 98
        1
 10
0.0
 20
0.0
  0
ENDBLK
  5
47E
100
AcDbEntity
  8
0_0
100
AcDbBlockEnd
  0
BLOCK
  5
4E6
100
AcDbEntity
  8
0_0
 62
     7
100
AcDbBlockBegin
  2
AI9-BLK97
 70
     0
 10
0.0
 20
0.0
 30
0.0
  3
AI9-BLK97
  1

  0
LINE
  5
505
100
AcDbEntity
  8
0_0
  6
AI9-LTYPE1
 62
     7
100
AcDbLine
 10
-19.258601
 20
28.500069
 30
0.0
 11
19.71542
 21
28.500069
 31
0.0
  0
LINE
  5
504
100
AcDbEntity
  8
0_0
  6
AI9-LTYPE1
 62
     7
100
AcDbLine
 10
-16.71233
 20
-28.500069
 30
0.0
 11
19.71542
 21
-28.500069
 31
0.0
  0
LINE
  5
503
100
AcDbEntity
  8
0_0
  6
AI9-LTYPE1
 62
     7
100
AcDbLine
 10
15.506547
 20
20.082323
 30
0.0
 11
15.506547
 21
-20.082667
 31
0.0
  0
POLYLINE
  5
4FE
100
AcDbEntity
  8
0_0
  6
AI9-LTYPE1
 62
     7
100
AcDb2dPolyline
 66
     1
 10
0.0
 20
0.0
 30
0.0
 70
     1
  0
VERTEX
  5
4FF
100
AcDbEntity
  8
0_0
  6
AI9-LTYPE1
 62
     7
100
AcDbVertex
100
AcDb2dVertex
 10
14.103704
 20
20.082323
 30
0.0
  0
VERTEX
  5
500
100
AcDbEntity
  8
0_0
  6
AI9-LTYPE1
 62
     7
100
AcDbVertex
100
AcDb2dVertex
 10
16.90939
 20
20.082323
 30
0.0
  0
VERTEX
  5
501
100
AcDbEntity
  8
0_0
  6
AI9-LTYPE1
 62
     7
100
AcDbVertex
100
AcDb2dVertex
 10
15.506547
 20
28.500069
 30
0.0
  0
SEQEND
  5
502
100
AcDbEntity
  8
0_0
  6
AI9-LTYPE1
 62
     7
  0
HATCH
  5
4FD
100
AcDbEntity
  8
0_0
 62
     7
100
AcDbHatch
 10
0.0
 20
0.0
 30
0.0
210
0.0
220
0.0
230
1.0
  2
SOLID
 70
     1
 71
     0
 91
        1
 92
        3
 72
     0
 73
     1
 93
        3
 10
15.506547037760415
 20
28.500069173177081
 10
16.909389919704861
 20
20.082322862413193
 10
14.10370415581597
 20
20.082322862413193
 97
        0
 75
     0
 76
     1
 98
        1
 10
0.0
 20
0.0
  0
POLYLINE
  5
4F8
100
AcDbEntity
  8
0_0
  6
AI9-LTYPE1
 62
     7
100
AcDb2dPolyline
 66
     1
 10
0.0
 20
0.0
 30
0.0
 70
     1
  0
VERTEX
  5
4F9
100
AcDbEntity
  8
0_0
  6
AI9-LTYPE1
 62
     7
100
AcDbVertex
100
AcDb2dVertex
 10
14.103704
 20
-20.082667
 30
0.0
  0
VERTEX
  5
4FA
100
AcDbEntity
  8
0_0
  6
AI9-LTYPE1
 62
     7
100
AcDbVertex
100
AcDb2dVertex
 10
16.90939
 20
-20.082667
 30
0.0
  0
VERTEX
  5
4FB
100
AcDbEntity
  8
0_0
  6
AI9-LTYPE1
 62
     7
100
AcDbVertex
100
AcDb2dVertex
 10
15.506547
 20
-28.500069
 30
0.0
  0
SEQEND
  5
4FC
100
AcDbEntity
  8
0_0
  6
AI9-LTYPE1
 62
     7
  0
HATCH
  5
4F7
100
AcDbEntity
  8
0_0
 62
     7
100
AcDbHatch
 10
0.0
 20
0.0
 30
0.0
210
0.0
220
0.0
230
1.0
  2
SOLID
 70
     1
 71
     0
 91
        1
 92
        3
 72
     0
 73
     1
 93
        3
 10
14.10370415581597
 20
-20.082667371961804
 10
16.909389919704861
 20
-20.082667371961804
 10
15.506547037760415
 20
-28.500069173177081
 97
        0
 75
     0
 76
     1
 98
        1
 10
0.0
 20
0.0
  0
MTEXT
  5
4F6
100
AcDbEntity
  8
0_0
 62
     7
100
AcDbMText
 10
-5.23811
 20
-9.679858
 30
0.0
 40
20.0
 41
0.0
 71
     1
 72
     2
  1
\fTxt|b0|i0;5
  7
STD
210
0.0
220
0.0
230
1.0
 11
0.0
 21
1.0
 31
0.0
  0
INSERT
  5
4F2
100
AcDbEntity
  8
0_0
 62
     7
100
AcDbBlockReference
  2
AI9-BLK100
 10
-21.363037
 20
28.499897
 30
0.0
  0
INSERT
  5
4ED
100
AcDbEntity
  8
0_0
 62
     7
100
AcDbBlockReference
  2
AI9-BLK99
 10
-18.816681
 20
-28.499897
 30
0.0
  0
INSERT
  5
4E8
100
AcDbEntity
  8
0_0
 62
     7
100
AcDbBlockReference
  2
AI9-BLK98
 10
15.506547
 20
-28.499897
 30
0.0
  0
ENDBLK
  5
506
100
AcDbEntity
  8
0_0
100
AcDbBlockEnd
  0
BLOCK
  5
4E9
100
AcDbEntity
  8
0_0
 62
     7
100
AcDbBlockBegin
  2
AI9-BLK98
 70
     0
 10
0.0
 20
0.0
 30
0.0
  3
AI9-BLK98
  1

  0
CIRCLE
  5
4EA
100
AcDbEntity
  8
0_0
 62
     7
100
AcDbCircle
 10
0.0
 20
-0.000172
 30
0.0
 40
0.035312
  0
ENDBLK
  5
4EB
100
AcDbEntity
  8
0_0
100
AcDbBlockEnd
  0
BLOCK
  5
4EE
100
AcDbEntity
  8
0_0
 62
     7
100
AcDbBlockBegin
  2
AI9-BLK99
 70
     0
 10
0.0
 20
0.0
 30
0.0
  3
AI9-BLK99
  1

  0
CIRCLE
  5
4EF
100
AcDbEntity
  8
0_0
 62
     7
100
AcDbCircle
 10
0.0
 20
-0.000172
 30
0.0
 40
0.035226
  0
ENDBLK
  5
4F0
100
AcDbEntity
  8
0_0
100
AcDbBlockEnd
  0
BLOCK
  5
4F3
100
AcDbEntity
  8
0_0
 62
     7
100
AcDbBlockBegin
  2
AI9-BLK100
 70
     0
 10
0.0
 20
0.0
 30
0.0
  3
AI9-BLK100
  1

  0
CIRCLE
  5
4F4
100
AcDbEntity
  8
0_0
 62
     7
100
AcDbCircle
 10
0.0
 20
0.000172
 30
0.0
 40
0.035312
  0
ENDBLK
  5
4F5
100
AcDbEntity
  8
0_0
100
AcDbBlockEnd
  0
BLOCK
  5
509
100
AcDbEntity
  8
0_0
  6
AI9-LTYPE1
 62
     7
100
AcDbBlockBegin
  2
AI9-BLK101
 70
     0
 10
0.0
 20
0.0
 30
0.0
  3
AI9-BLK101
  1

  0
LINE
  5
528
100
AcDbEntity
  8
0_0
  6
AI9-LTYPE1
 62
     7
100
AcDbLine
 10
-32.494141
 20
249.9999
 30
0.0
 11
32.950788
 21
249.9999
 31
0.0
  0
LINE
  5
527
100
AcDbEntity
  8
0_0
  6
AI9-LTYPE1
 62
     7
100
AcDbLine
 10
-21.156504
 20
-249.9999
 30
0.0
 11
32.950788
 21
-249.9999
 31
0.0
  0
LINE
  5
526
100
AcDbEntity
  8
0_0
  6
AI9-LTYPE1
 62
     7
100
AcDbLine
 10
28.742087
 20
241.582498
 30
0.0
 11
28.742087
 21
-241.582498
 31
0.0
  0
POLYLINE
  5
521
100
AcDbEntity
  8
0_0
  6
AI9-LTYPE1
 62
     7
100
AcDb2dPolyline
 66
     1
 10
0.0
 20
0.0
 30
0.0
 70
     1
  0
VERTEX
  5
522
100
AcDbEntity
  8
0_0
  6
AI9-LTYPE1
 62
     7
100
AcDbVertex
100
AcDb2dVertex
 10
27.339244
 20
241.582498
 30
0.0
  0
VERTEX
  5
523
100
AcDbEntity
  8
0_0
  6
AI9-LTYPE1
 62
     7
100
AcDbVertex
100
AcDb2dVertex
 10
30.145102
 20
241.582498
 30
0.0
  0
VERTEX
  5
524
100
AcDbEntity
  8
0_0
  6
AI9-LTYPE1
 62
     7
100
AcDbVertex
100
AcDb2dVertex
 10
28.742087
 20
249.9999
 30
0.0
  0
SEQEND
  5
525
100
AcDbEntity
  8
0_0
  6
AI9-LTYPE1
 62
     7
  0
HATCH
  5
520
100
AcDbEntity
  8
0_0
 62
     7
100
AcDbHatch
 10
0.0
 20
0.0
 30
0.0
210
0.0
220
0.0
230
1.0
  2
SOLID
 70
     1
 71
     0
 91
        1
 92
        3
 72
     0
 73
     1
 93
        3
 10
28.742087131076385
 20
249.99989963107637
 10
30.145102267795135
 20
241.5824978298611
 10
27.339244249131941
 20
241.5824978298611
 97
        0
 75
     0
 76
     1
 98
        1
 10
0.0
 20
0.0
  0
POLYLINE
  5
51B
100
AcDbEntity
  8
0_0
  6
AI9-LTYPE1
 62
     7
100
AcDb2dPolyline
 66
     1
 10
0.0
 20
0.0
 30
0.0
 70
     1
  0
VERTEX
  5
51C
100
AcDbEntity
  8
0_0
  6
AI9-LTYPE1
 62
     7
100
AcDbVertex
100
AcDb2dVertex
 10
27.339244
 20
-241.582498
 30
0.0
  0
VERTEX
  5
51D
100
AcDbEntity
  8
0_0
  6
AI9-LTYPE1
 62
     7
100
AcDbVertex
100
AcDb2dVertex
 10
30.145102
 20
-241.582498
 30
0.0
  0
VERTEX
  5
51E
100
AcDbEntity
  8
0_0
  6
AI9-LTYPE1
 62
     7
100
AcDbVertex
100
AcDb2dVertex
 10
28.742087
 20
-249.9999
 30
0.0
  0
SEQEND
  5
51F
100
AcDbEntity
  8
0_0
  6
AI9-LTYPE1
 62
     7
  0
HATCH
  5
51A
100
AcDbEntity
  8
0_0
 62
     7
100
AcDbHatch
 10
0.0
 20
0.0
 30
0.0
210
0.0
220
0.0
230
1.0
  2
SOLID
 70
     1
 71
     0
 91
        1
 92
        3
 72
     0
 73
     1
 93
        3
 10
27.339244249131941
 20
-241.5824978298611
 10
30.145102267795135
 20
-241.5824978298611
 10
28.742087131076385
 20
-249.99989963107637
 97
        0
 75
     0
 76
     1
 98
        1
 10
0.0
 20
0.0
  0
MTEXT
  5
519
100
AcDbEntity
  8
0_0
 62
     7
100
AcDbMText
 10
7.99743
 20
61.728876
 30
0.0
 40
20.0
 41
0.0
 71
     1
 72
     2
  1
\fTxt|b0|i0;50
  7
STD
210
0.0
220
0.0
230
1.0
 11
0.0
 21
1.0
 31
0.0
  0
INSERT
  5
515
100
AcDbEntity
  8
0_0
 62
     7
100
AcDbBlockReference
  2
AI9-BLK104
 10
-34.598577
 20
250.000072
 30
0.0
  0
INSERT
  5
510
100
AcDbEntity
  8
0_0
 62
     7
100
AcDbBlockReference
  2
AI9-BLK103
 10
-23.260854
 20
-249.9999
 30
0.0
  0
INSERT
  5
50B
100
AcDbEntity
  8
0_0
  6
AI9-LTYPE1
 62
     7
100
AcDbBlockReference
  2
AI9-BLK102
 10
28.742087
 20
-250.000072
 30
0.0
  0
ENDBLK
  5
529
100
AcDbEntity
  8
0_0
100
AcDbBlockEnd
  0
BLOCK
  5
50C
100
AcDbEntity
  8
0_0
  6
AI9-LTYPE1
 62
     7
100
AcDbBlockBegin
  2
AI9-BLK102
 70
     0
 10
0.0
 20
0.0
 30
0.0
  3
AI9-BLK102
  1

  0
CIRCLE
  5
50D
100
AcDbEntity
  8
0_0
 62
     7
100
AcDbCircle
 10
0.0
 20
0.000172
 30
0.0
 40
0.035312
  0
ENDBLK
  5
50E
100
AcDbEntity
  8
0_0
100
AcDbBlockEnd
  0
BLOCK
  5
511
100
AcDbEntity
  8
0_0
 62
     7
100
AcDbBlockBegin
  2
AI9-BLK103
 70
     0
 10
0.0
 20
0.0
 30
0.0
  3
AI9-BLK103
  1

  0
CIRCLE
  5
512
100
AcDbEntity
  8
0_0
 62
     7
100
AcDbCircle
 10
0.0
 20
0.0
 30
0.0
 40
0.035226
  0
ENDBLK
  5
513
100
AcDbEntity
  8
0_0
100
AcDbBlockEnd
  0
BLOCK
  5
516
100
AcDbEntity
  8
0_0
 62
     7
100
AcDbBlockBegin
  2
AI9-BLK104
 70
     0
 10
0.0
 20
0.0
 30
0.0
  3
AI9-BLK104
  1

  0
CIRCLE
  5
517
100
AcDbEntity
  8
0_0
 62
     7
100
AcDbCircle
 10
0.0
 20
-0.000172
 30
0.0
 40
0.035312
  0
ENDBLK
  5
518
100
AcDbEntity
  8
0_0
100
AcDbBlockEnd
  0
BLOCK
  5
52C
100
AcDbEntity
  8
0_0
  6
AI9-LTYPE1
 62
     7
100
AcDbBlockBegin
  2
AI9-BLK105
 70
     0
 10
0.0
 20
0.0
 30
0.0
  3
AI9-BLK105
  1

  0
LINE
  5
54B
100
AcDbEntity
  8
0_0
  6
AI9-LTYPE1
 62
     7
100
AcDbLine
 10
-30.558341
 20
44.999837
 30
0.0
 11
33.560914
 21
44.999837
 31
0.0
  0
LINE
  5
54A
100
AcDbEntity
  8
0_0
  6
AI9-LTYPE1
 62
     7
100
AcDbLine
 10
-33.104784
 20
-45.000182
 30
0.0
 11
33.560914
 21
-45.000182
 31
0.0
  0
LINE
  5
549
100
AcDbEntity
  8
0_0
  6
AI9-LTYPE1
 62
     7
100
AcDbLine
 10
29.352214
 20
36.582435
 30
0.0
 11
29.352214
 21
-36.58278
 31
0.0
  0
POLYLINE
  5
544
100
AcDbEntity
  8
0_0
  6
AI9-LTYPE1
 62
     7
100
AcDb2dPolyline
 66
     1
 10
0.0
 20
0.0
 30
0.0
 70
     1
  0
VERTEX
  5
545
100
AcDbEntity
  8
0_0
  6
AI9-LTYPE1
 62
     7
100
AcDbVertex
100
AcDb2dVertex
 10
27.949198
 20
36.582435
 30
0.0
  0
VERTEX
  5
546
100
AcDbEntity
  8
0_0
  6
AI9-LTYPE1
 62
     7
100
AcDbVertex
100
AcDb2dVertex
 10
30.755056
 20
36.582435
 30
0.0
  0
VERTEX
  5
547
100
AcDbEntity
  8
0_0
  6
AI9-LTYPE1
 62
     7
100
AcDbVertex
100
AcDb2dVertex
 10
29.352214
 20
44.999837
 30
0.0
  0
SEQEND
  5
548
100
AcDbEntity
  8
0_0
  6
AI9-LTYPE1
 62
     7
  0
HATCH
  5
543
100
AcDbEntity
  8
0_0
 62
     7
100
AcDbHatch
 10
0.0
 20
0.0
 30
0.0
210
0.0
220
0.0
230
1.0
  2
SOLID
 70
     1
 71
     0
 91
        1
 92
        3
 72
     0
 73
     1
 93
        3
 10
29.352213541666664
 20
44.999837239583329
 10
30.755056423611109
 20
36.582435438368051
 10
27.949198404947914
 20
36.582435438368051
 97
        0
 75
     0
 76
     1
 98
        1
 10
0.0
 20
0.0
  0
POLYLINE
  5
53E
100
AcDbEntity
  8
0_0
  6
AI9-LTYPE1
 62
     7
100
AcDb2dPolyline
 66
     1
 10
0.0
 20
0.0
 30
0.0
 70
     1
  0
VERTEX
  5
53F
100
AcDbEntity
  8
0_0
  6
AI9-LTYPE1
 62
     7
100
AcDbVertex
100
AcDb2dVertex
 10
27.949198
 20
-36.58278
 30
0.0
  0
VERTEX
  5
540
100
AcDbEntity
  8
0_0
  6
AI9-LTYPE1
 62
     7
100
AcDbVertex
100
AcDb2dVertex
 10
30.755056
 20
-36.58278
 30
0.0
  0
VERTEX
  5
541
100
AcDbEntity
  8
0_0
  6
AI9-LTYPE1
 62
     7
100
AcDbVertex
100
AcDb2dVertex
 10
29.352214
 20
-45.000182
 30
0.0
  0
SEQEND
  5
542
100
AcDbEntity
  8
0_0
  6
AI9-LTYPE1
 62
     7
  0
HATCH
  5
53D
100
AcDbEntity
  8
0_0
 62
     7
100
AcDbHatch
 10
0.0
 20
0.0
 30
0.0
210
0.0
220
0.0
230
1.0
  2
SOLID
 70
     1
 71
     0
 91
        1
 92
        3
 72
     0
 73
     1
 93
        3
 10
27.949198404947914
 20
-36.582779947916663
 10
30.755056423611109
 20
-36.582779947916663
 10
29.352213541666664
 20
-45.00018174913194
 97
        0
 75
     0
 76
     1
 98
        1
 10
0.0
 20
0.0
  0
MTEXT
  5
53C
100
AcDbEntity
  8
0_0
 62
     7
100
AcDbMText
 10
8.608073
 20
-9.679686
 30
0.0
 40
20.0
 41
0.0
 71
     1
 72
     2
  1
\fTxt|b0|i0;9
  7
STD
210
0.0
220
0.0
230
1.0
 11
0.0
 21
1.0
 31
0.0
  0
INSERT
  5
538
100
AcDbEntity
  8
0_0
 62
     7
100
AcDbBlockReference
  2
AI9-BLK108
 10
-32.662778
 20
45.000009
 30
0.0
  0
INSERT
  5
533
100
AcDbEntity
  8
0_0
 62
     7
100
AcDbBlockReference
  2
AI9-BLK107
 10
-35.20922
 20
-45.000009
 30
0.0
  0
INSERT
  5
52E
100
AcDbEntity
  8
0_0
  6
AI9-LTYPE1
 62
     7
100
AcDbBlockReference
  2
AI9-BLK106
 10
29.352127
 20
-45.000182
 30
0.0
  0
ENDBLK
  5
54C
100
AcDbEntity
  8
0_0
100
AcDbBlockEnd
  0
BLOCK
  5
52F
100
AcDbEntity
  8
0_0
  6
AI9-LTYPE1
 62
     7
100
AcDbBlockBegin
  2
AI9-BLK106
 70
     0
 10
0.0
 20
0.0
 30
0.0
  3
AI9-BLK106
  1

  0
CIRCLE
  5
530
100
AcDbEntity
  8
0_0
 62
     7
100
AcDbCircle
 10
0.0
 20
0.0
 30
0.0
 40
0.035226
  0
ENDBLK
  5
531
100
AcDbEntity
  8
0_0
100
AcDbBlockEnd
  0
BLOCK
  5
534
100
AcDbEntity
  8
0_0
 62
     7
100
AcDbBlockBegin
  2
AI9-BLK107
 70
     0
 10
0.0
 20
0.0
 30
0.0
  3
AI9-BLK107
  1

  0
CIRCLE
  5
535
100
AcDbEntity
  8
0_0
 62
     7
100
AcDbCircle
 10
0.0
 20
-0.000172
 30
0.0
 40
0.035312
  0
ENDBLK
  5
536
100
AcDbEntity
  8
0_0
100
AcDbBlockEnd
  0
BLOCK
  5
539
100
AcDbEntity
  8
0_0
 62
     7
100
AcDbBlockBegin
  2
AI9-BLK108
 70
     0
 10
0.0
 20
0.0
 30
0.0
  3
AI9-BLK108
  1

  0
CIRCLE
  5
53A
100
AcDbEntity
  8
0_0
 62
     7
100
AcDbCircle
 10
0.0
 20
-0.000172
 30
0.0
 40
0.035312
  0
ENDBLK
  5
53B
100
AcDbEntity
  8
0_0
100
AcDbBlockEnd
  0
BLOCK
  5
559
100
AcDbEntity
  8
0_0
  6
AI9-LTYPE2
 62
     7
100
AcDbBlockBegin
  2
AI9-BLK109
 70
     0
 10
0.0
 20
0.0
 30
0.0
  3
AI9-BLK109
  1

  0
LINE
  5
578
100
AcDbEntity
  8
0_0
  6
AI9-LTYPE1
 62
     7
100
AcDbLine
 10
-49.651319
 20
-50.000307
 30
0.0
 11
50.107966
 21
-50.000307
 31
0.0
  0
LINE
  5
577
100
AcDbEntity
  8
0_0
  6
AI9-LTYPE1
 62
     7
100
AcDbLine
 10
-47.240441
 20
49.99979
 30
0.0
 11
50.107966
 21
49.99979
 31
0.0
  0
LINE
  5
576
100
AcDbEntity
  8
0_0
  6
AI9-LTYPE1
 62
     7
100
AcDbLine
 10
45.899266
 20
-41.582905
 30
0.0
 11
45.899266
 21
41.582389
 31
0.0
  0
POLYLINE
  5
571
100
AcDbEntity
  8
0_0
  6
AI9-LTYPE1
 62
     7
100
AcDb2dPolyline
 66
     1
 10
0.0
 20
0.0
 30
0.0
 70
     1
  0
VERTEX
  5
572
100
AcDbEntity
  8
0_0
  6
AI9-LTYPE1
 62
     7
100
AcDbVertex
100
AcDb2dVertex
 10
44.49625
 20
-41.582905
 30
0.0
  0
VERTEX
  5
573
100
AcDbEntity
  8
0_0
  6
AI9-LTYPE1
 62
     7
100
AcDbVertex
100
AcDb2dVertex
 10
47.302108
 20
-41.582905
 30
0.0
  0
VERTEX
  5
574
100
AcDbEntity
  8
0_0
  6
AI9-LTYPE1
 62
     7
100
AcDbVertex
100
AcDb2dVertex
 10
45.899266
 20
-50.000307
 30
0.0
  0
SEQEND
  5
575
100
AcDbEntity
  8
0_0
  6
AI9-LTYPE1
 62
     7
  0
HATCH
  5
570
100
AcDbEntity
  8
0_0
 62
     7
100
AcDbHatch
 10
0.0
 20
0.0
 30
0.0
210
0.0
220
0.0
230
1.0
  2
SOLID
 70
     1
 71
     0
 91
        1
 92
        3
 72
     0
 73
     1
 93
        3
 10
44.496250406901041
 20
-41.582905409071174
 10
47.302108425564235
 20
-41.582905409071174
 10
45.899265543619791
 20
-50.000307210286451
 97
        0
 75
     0
 76
     1
 98
        1
 10
0.0
 20
0.0
  0
POLYLINE
  5
56B
100
AcDbEntity
  8
0_0
  6
AI9-LTYPE1
 62
     7
100
AcDb2dPolyline
 66
     1
 10
0.0
 20
0.0
 30
0.0
 70
     1
  0
VERTEX
  5
56C
100
AcDbEntity
  8
0_0
  6
AI9-LTYPE1
 62
     7
100
AcDbVertex
100
AcDb2dVertex
 10
44.49625
 20
41.582389
 30
0.0
  0
VERTEX
  5
56D
100
AcDbEntity
  8
0_0
  6
AI9-LTYPE1
 62
     7
100
AcDbVertex
100
AcDb2dVertex
 10
47.302108
 20
41.582389
 30
0.0
  0
VERTEX
  5
56E
100
AcDbEntity
  8
0_0
  6
AI9-LTYPE1
 62
     7
100
AcDbVertex
100
AcDb2dVertex
 10
45.899266
 20
49.99979
 30
0.0
  0
SEQEND
  5
56F
100
AcDbEntity
  8
0_0
  6
AI9-LTYPE1
 62
     7
  0
HATCH
  5
56A
100
AcDbEntity
  8
0_0
 62
     7
100
AcDbHatch
 10
0.0
 20
0.0
 30
0.0
210
0.0
220
0.0
230
1.0
  2
SOLID
 70
     1
 71
     0
 91
        1
 92
        3
 72
     0
 73
     1
 93
        3
 10
45.899265543619791
 20
49.999790445963534
 10
47.302108425564235
 20
41.582388644748264
 10
44.496250406901041
 20
41.582388644748264
 97
        0
 75
     0
 76
     1
 98
        1
 10
0.0
 20
0.0
  0
MTEXT
  5
569
100
AcDbEntity
  8
0_0
 62
     7
100
AcDbMText
 10
25.154608
 20
-14.529605
 30
0.0
 40
20.0
 41
0.0
 71
     1
 72
     2
  1
\fTxt|b0|i0;10
  7
STD
210
0.0
220
0.0
230
1.0
 11
0.0
 21
1.0
 31
0.0
  0
INSERT
  5
565
100
AcDbEntity
  8
0_0
 62
     7
100
AcDbBlockReference
  2
AI9-BLK112
 10
-51.755756
 20
-50.000135
 30
0.0
  0
INSERT
  5
560
100
AcDbEntity
  8
0_0
 62
     7
100
AcDbBlockReference
  2
AI9-BLK111
 10
-49.344706
 20
49.999963
 30
0.0
  0
INSERT
  5
55B
100
AcDbEntity
  8
0_0
  6
AI9-LTYPE2
 62
     7
100
AcDbBlockReference
  2
AI9-BLK110
 10
45.899179
 20
49.999963
 30
0.0
  0
ENDBLK
  5
579
100
AcDbEntity
  8
0_0
100
AcDbBlockEnd
  0
BLOCK
  5
55C
100
AcDbEntity
  8
0_0
  6
AI9-LTYPE2
 62
     7
100
AcDbBlockBegin
  2
AI9-BLK110
 70
     0
 10
0.0
 20
0.0
 30
0.0
  3
AI9-BLK110
  1

  0
CIRCLE
  5
55D
100
AcDbEntity
  8
0_0
 62
     7
100
AcDbCircle
 10
0.0
 20
-0.000172
 30
0.0
 40
0.035226
  0
ENDBLK
  5
55E
100
AcDbEntity
  8
0_0
100
AcDbBlockEnd
  0
BLOCK
  5
561
100
AcDbEntity
  8
0_0
 62
     7
100
AcDbBlockBegin
  2
AI9-BLK111
 70
     0
 10
0.0
 20
0.0
 30
0.0
  3
AI9-BLK111
  1

  0
CIRCLE
  5
562
100
AcDbEntity
  8
0_0
 62
     7
100
AcDbCircle
 10
0.0
 20
-0.000172
 30
0.0
 40
0.035312
  0
ENDBLK
  5
563
100
AcDbEntity
  8
0_0
100
AcDbBlockEnd
  0
BLOCK
  5
566
100
AcDbEntity
  8
0_0
 62
     7
100
AcDbBlockBegin
  2
AI9-BLK112
 70
     0
 10
0.0
 20
0.0
 30
0.0
  3
AI9-BLK112
  1

  0
CIRCLE
  5
567
100
AcDbEntity
  8
0_0
 62
     7
100
AcDbCircle
 10
0.0
 20
-0.000172
 30
0.0
 40
0.035312
  0
ENDBLK
  5
568
100
AcDbEntity
  8
0_0
100
AcDbBlockEnd
  0
BLOCK
  5
57C
100
AcDbEntity
  8
0_0
  6
AI9-LTYPE1
 62
     7
100
AcDbBlockBegin
  2
AI9-BLK113
 70
     0
 10
0.0
 20
0.0
 30
0.0
  3
AI9-BLK113
  1

  0
LINE
  5
59B
100
AcDbEntity
  8
0_0
  6
AI9-LTYPE1
 62
     7
100
AcDbLine
 10
-48.723469
 20
399.999874
 30
0.0
 11
51.637847
 21
399.999874
 31
0.0
  0
LINE
  5
59A
100
AcDbEntity
  8
0_0
  6
AI9-LTYPE1
 62
     7
100
AcDbLine
 10
-51.1812
 20
-400.000218
 30
0.0
 11
51.637847
 21
-400.000218
 31
0.0
  0
LINE
  5
599
100
AcDbEntity
  8
0_0
  6
AI9-LTYPE1
 62
     7
100
AcDbLine
 10
47.428974
 20
391.582472
 30
0.0
 11
47.428974
 21
-391.582472
 31
0.0
  0
POLYLINE
  5
594
100
AcDbEntity
  8
0_0
  6
AI9-LTYPE1
 62
     7
100
AcDb2dPolyline
 66
     1
 10
0.0
 20
0.0
 30
0.0
 70
     1
  0
VERTEX
  5
595
100
AcDbEntity
  8
0_0
  6
AI9-LTYPE1
 62
     7
100
AcDbVertex
100
AcDb2dVertex
 10
46.026131
 20
391.582472
 30
0.0
  0
VERTEX
  5
596
100
AcDbEntity
  8
0_0
  6
AI9-LTYPE1
 62
     7
100
AcDbVertex
100
AcDb2dVertex
 10
48.831817
 20
391.582472
 30
0.0
  0
VERTEX
  5
597
100
AcDbEntity
  8
0_0
  6
AI9-LTYPE1
 62
     7
100
AcDbVertex
100
AcDb2dVertex
 10
47.428974
 20
399.999874
 30
0.0
  0
SEQEND
  5
598
100
AcDbEntity
  8
0_0
  6
AI9-LTYPE1
 62
     7
  0
HATCH
  5
593
100
AcDbEntity
  8
0_0
 62
     7
100
AcDbHatch
 10
0.0
 20
0.0
 30
0.0
210
0.0
220
0.0
230
1.0
  2
SOLID
 70
     1
 71
     0
 91
        1
 92
        3
 72
     0
 73
     1
 93
        3
 10
47.428974066840276
 20
399.99987386067704
 10
48.83181694878472
 20
391.58247205946179
 10
46.026131184895831
 20
391.58247205946179
 97
        0
 75
     0
 76
     1
 98
        1
 10
0.0
 20
0.0
  0
POLYLINE
  5
58E
100
AcDbEntity
  8
0_0
  6
AI9-LTYPE1
 62
     7
100
AcDb2dPolyline
 66
     1
 10
0.0
 20
0.0
 30
0.0
 70
     1
  0
VERTEX
  5
58F
100
AcDbEntity
  8
0_0
  6
AI9-LTYPE1
 62
     7
100
AcDbVertex
100
AcDb2dVertex
 10
46.026131
 20
-391.582472
 30
0.0
  0
VERTEX
  5
590
100
AcDbEntity
  8
0_0
  6
AI9-LTYPE1
 62
     7
100
AcDbVertex
100
AcDb2dVertex
 10
48.831817
 20
-391.582472
 30
0.0
  0
VERTEX
  5
591
100
AcDbEntity
  8
0_0
  6
AI9-LTYPE1
 62
     7
100
AcDbVertex
100
AcDb2dVertex
 10
47.428974
 20
-400.000218
 30
0.0
  0
SEQEND
  5
592
100
AcDbEntity
  8
0_0
  6
AI9-LTYPE1
 62
     7
  0
HATCH
  5
58D
100
AcDbEntity
  8
0_0
 62
     7
100
AcDbHatch
 10
0.0
 20
0.0
 30
0.0
210
0.0
220
0.0
230
1.0
  2
SOLID
 70
     1
 71
     0
 91
        1
 92
        3
 72
     0
 73
     1
 93
        3
 10
46.026131184895831
 20
-391.58247205946179
 10
48.83181694878472
 20
-391.58247205946179
 10
47.428974066840276
 20
-400.00021837022564
 97
        0
 75
     0
 76
     1
 98
        1
 10
0.0
 20
0.0
  0
MTEXT
  5
58C
100
AcDbEntity
  8
0_0
 62
     7
100
AcDbMText
 10
26.684317
 20
129.660819
 30
0.0
 40
20.0
 41
0.0
 71
     1
 72
     2
  1
\fTxt|b0|i0;80
  7
STD
210
0.0
220
0.0
230
1.0
 11
0.0
 21
1.0
 31
0.0
  0
INSERT
  5
588
100
AcDbEntity
  8
0_0
 62
     7
100
AcDbBlockReference
  2
AI9-BLK116
 10
-50.827905
 20
400.000046
 30
0.0
  0
INSERT
  5
583
100
AcDbEntity
  8
0_0
 62
     7
100
AcDbBlockReference
  2
AI9-BLK115
 10
-53.28555
 20
-400.000046
 30
0.0
  0
INSERT
  5
57E
100
AcDbEntity
  8
0_0
  6
AI9-LTYPE1
 62
     7
100
AcDbBlockReference
  2
AI9-BLK114
 10
47.428974
 20
-400.000046
 30
0.0
  0
ENDBLK
  5
59C
100
AcDbEntity
  8
0_0
100
AcDbBlockEnd
  0
BLOCK
  5
57F
100
AcDbEntity
  8
0_0
  6
AI9-LTYPE1
 62
     7
100
AcDbBlockBegin
  2
AI9-BLK114
 70
     0
 10
0.0
 20
0.0
 30
0.0
  3
AI9-BLK114
  1

  0
CIRCLE
  5
580
100
AcDbEntity
  8
0_0
 62
     7
100
AcDbCircle
 10
0.0
 20
-0.000172
 30
0.0
 40
0.035312
  0
ENDBLK
  5
581
100
AcDbEntity
  8
0_0
100
AcDbBlockEnd
  0
BLOCK
  5
584
100
AcDbEntity
  8
0_0
 62
     7
100
AcDbBlockBegin
  2
AI9-BLK115
 70
     0
 10
0.0
 20
0.0
 30
0.0
  3
AI9-BLK115
  1

  0
CIRCLE
  5
585
100
AcDbEntity
  8
0_0
 62
     7
100
AcDbCircle
 10
0.0
 20
-0.000172
 30
0.0
 40
0.035226
  0
ENDBLK
  5
586
100
AcDbEntity
  8
0_0
100
AcDbBlockEnd
  0
BLOCK
  5
589
100
AcDbEntity
  8
0_0
 62
     7
100
AcDbBlockBegin
  2
AI9-BLK116
 70
     0
 10
0.0
 20
0.0
 30
0.0
  3
AI9-BLK116
  1

  0
CIRCLE
  5
58A
100
AcDbEntity
  8
0_0
 62
     7
100
AcDbCircle
 10
0.0
 20
-0.000172
 30
0.0
 40
0.035312
  0
ENDBLK
  5
58B
100
AcDbEntity
  8
0_0
100
AcDbBlockEnd
  0
BLOCK
  5
59F
100
AcDbEntity
  8
0_0
  6
AI9-LTYPE1
 62
     7
100
AcDbBlockBegin
  2
AI9-BLK117
 70
     0
 10
0.0
 20
0.0
 30
0.0
  3
AI9-BLK117
  1

  0
INSERT
  5
5A3
100
AcDbEntity
  8
0_0
 62
     7
100
AcDbBlockReference
  2
AI9-BLK118
 10
-9.905425
 20
24.873762
 30
0.0
  0
CIRCLE
  5
5A1
100
AcDbEntity
  8
0_0
 62
     7
100
AcDbCircle
 10
32.405429
 20
-9.069903
 30
0.0
 40
24.999938
  0
CIRCLE
  5
5A0
100
AcDbEntity
  8
0_0
 62
     7
100
AcDbCircle
 10
32.405429
 20
-9.069903
 30
0.0
 40
21.00001
  0
ENDBLK
  5
5B0
100
AcDbEntity
  8
0_0
100
AcDbBlockEnd
  0
BLOCK
  5
5A4
100
AcDbEntity
  8
0_0
 62
     7
100
AcDbBlockBegin
  2
AI9-BLK118
 70
     0
 10
0.0
 20
0.0
 30
0.0
  3
AI9-BLK118
  1

  0
LINE
  5
5AE
100
AcDbEntity
  8
0_0
 62
     7
100
AcDbLine
 10
-47.499943
 20
9.196166
 30
0.0
 11
5.000039
 21
9.196166
 31
0.0
  0
LINE
  5
5AD
100
AcDbEntity
  8
0_0
 62
     7
100
AcDbLine
 10
-47.499943
 20
5.196065
 30
0.0
 11
5.000039
 21
5.196065
 31
0.0
  0
LINE
  5
5AC
100
AcDbEntity
  8
0_0
 62
     7
100
AcDbLine
 10
-47.499943
 20
9.196166
 30
0.0
 11
-47.499943
 21
5.196065
 31
0.0
  0
LINE
  5
5AB
100
AcDbEntity
  8
0_0
 62
     7
100
AcDbLine
 10
17.000168
 20
5.196065
 30
0.0
 11
47.499943
 21
5.196065
 31
0.0
  0
LINE
  5
5AA
100
AcDbEntity
  8
0_0
 62
     7
100
AcDbLine
 10
17.000168
 20
1.195965
 30
0.0
 11
47.499943
 21
1.195965
 31
0.0
  0
LINE
  5
5A9
100
AcDbEntity
  8
0_0
 62
     7
100
AcDbLine
 10
5.000039
 20
9.196166
 30
0.0
 11
17.000168
 21
5.196065
 31
0.0
  0
LINE
  5
5A8
100
AcDbEntity
  8
0_0
 62
     7
100
AcDbLine
 10
5.000039
 20
5.196065
 30
0.0
 11
17.000168
 21
1.195965
 31
0.0
  0
LINE
  5
5A7
100
AcDbEntity
  8
0_0
 62
     7
100
AcDbLine
 10
42.500076
 20
5.196065
 30
0.0
 11
42.500076
 21
1.195965
 31
0.0
  0
LINE
  5
5A6
100
AcDbEntity
  8
0_0
 62
     7
100
AcDbLine
 10
37.500037
 20
5.196065
 30
0.0
 11
37.500037
 21
-9.196166
 31
0.0
  0
LINE
  5
5A5
100
AcDbEntity
  8
0_0
 62
     7
100
AcDbLine
 10
47.499943
 20
5.196065
 30
0.0
 11
47.499943
 21
-9.196166
 31
0.0
  0
ENDBLK
  5
5AF
100
AcDbEntity
  8
0_0
100
AcDbBlockEnd
  0
BLOCK
  5
5C1
100
AcDbEntity
  8
0_0
 62
     7
100
AcDbBlockBegin
  2
AI9-BLK119
 70
     0
 10
0.0
 20
0.0
 30
0.0
  3
AI9-BLK119
  1

  0
POLYLINE
  5
5C2
100
AcDbEntity
  8
0_0
 62
     7
100
AcDb2dPolyline
 66
     1
 10
0.0
 20
0.0
 30
0.0
 70
     1
  0
VERTEX
  5
5C3
100
AcDbEntity
  8
0_0
 62
     7
100
AcDbVertex
100
AcDb2dVertex
 10
-1.703169
 20
57.860723
 30
0.0
  0
VERTEX
  5
5C4
100
AcDbEntity
  8
0_0
 62
     7
100
AcDbVertex
100
AcDb2dVertex
 10
1.703169
 20
57.860723
 30
0.0
  0
VERTEX
  5
5C5
100
AcDbEntity
  8
0_0
 62
     7
100
AcDbVertex
100
AcDb2dVertex
 10
1.703169
 20
-57.860723
 30
0.0
  0
VERTEX
  5
5C6
100
AcDbEntity
  8
0_0
 62
     7
100
AcDbVertex
100
AcDb2dVertex
 10
-1.703169
 20
-57.860723
 30
0.0
  0
SEQEND
  5
5C7
100
AcDbEntity
  8
0_0
 62
     7
  0
ENDBLK
  5
5C8
100
AcDbEntity
  8
0_0
100
AcDbBlockEnd
  0
BLOCK
  5
5DA
100
AcDbEntity
  8
0_0
 62
     7
100
AcDbBlockBegin
  2
AI9-BLK120
 70
     0
 10
0.0
 20
0.0
 30
0.0
  3
AI9-BLK120
  1

  0
LINE
  5
5F9
100
AcDbEntity
  8
0_0
  6
AI9-LTYPE1
 62
     7
100
AcDbLine
 10
-58.674024
 20
294.999909
 30
0.0
 11
59.129983
 21
294.999909
 31
0.0
  0
LINE
  5
5F8
100
AcDbEntity
  8
0_0
  6
AI9-LTYPE1
 62
     7
100
AcDbLine
 10
-49.882829
 20
-294.999909
 30
0.0
 11
59.129983
 21
-294.999909
 31
0.0
  0
LINE
  5
5F7
100
AcDbEntity
  8
0_0
  6
AI9-LTYPE1
 62
     7
100
AcDbLine
 10
54.921282
 20
286.582507
 30
0.0
 11
54.921282
 21
-286.582507
 31
0.0
  0
POLYLINE
  5
5F2
100
AcDbEntity
  8
0_0
  6
AI9-LTYPE1
 62
     7
100
AcDb2dPolyline
 66
     1
 10
0.0
 20
0.0
 30
0.0
 70
     1
  0
VERTEX
  5
5F3
100
AcDbEntity
  8
0_0
  6
AI9-LTYPE1
 62
     7
100
AcDbVertex
100
AcDb2dVertex
 10
53.518439
 20
286.582507
 30
0.0
  0
VERTEX
  5
5F4
100
AcDbEntity
  8
0_0
  6
AI9-LTYPE1
 62
     7
100
AcDbVertex
100
AcDb2dVertex
 10
56.324297
 20
286.582507
 30
0.0
  0
VERTEX
  5
5F5
100
AcDbEntity
  8
0_0
  6
AI9-LTYPE1
 62
     7
100
AcDbVertex
100
AcDb2dVertex
 10
54.921282
 20
294.999909
 30
0.0
  0
SEQEND
  5
5F6
100
AcDbEntity
  8
0_0
  6
AI9-LTYPE1
 62
     7
  0
HATCH
  5
5F1
100
AcDbEntity
  8
0_0
 62
     7
100
AcDbHatch
 10
0.0
 20
0.0
 30
0.0
210
0.0
220
0.0
230
1.0
  2
SOLID
 70
     1
 71
     0
 91
        1
 92
        3
 72
     0
 73
     1
 93
        3
 10
54.921281602647568
 20
294.99990912543399
 10
56.324296739366318
 20
286.58250732421874
 10
53.518438720703124
 20
286.58250732421874
 97
        0
 75
     0
 76
     1
 98
        1
 10
0.0
 20
0.0
  0
POLYLINE
  5
5EC
100
AcDbEntity
  8
0_0
  6
AI9-LTYPE1
 62
     7
100
AcDb2dPolyline
 66
     1
 10
0.0
 20
0.0
 30
0.0
 70
     1
  0
VERTEX
  5
5ED
100
AcDbEntity
  8
0_0
  6
AI9-LTYPE1
 62
     7
100
AcDbVertex
100
AcDb2dVertex
 10
53.518439
 20
-286.582507
 30
0.0
  0
VERTEX
  5
5EE
100
AcDbEntity
  8
0_0
  6
AI9-LTYPE1
 62
     7
100
AcDbVertex
100
AcDb2dVertex
 10
56.324297
 20
-286.582507
 30
0.0
  0
VERTEX
  5
5EF
100
AcDbEntity
  8
0_0
  6
AI9-LTYPE1
 62
     7
100
AcDbVertex
100
AcDb2dVertex
 10
54.921282
 20
-294.999909
 30
0.0
  0
SEQEND
  5
5F0
100
AcDbEntity
  8
0_0
  6
AI9-LTYPE1
 62
     7
  0
HATCH
  5
5EB
100
AcDbEntity
  8
0_0
 62
     7
100
AcDbHatch
 10
0.0
 20
0.0
 30
0.0
210
0.0
220
0.0
230
1.0
  2
SOLID
 70
     1
 71
     0
 91
        1
 92
        3
 72
     0
 73
     1
 93
        3
 10
53.518438720703124
 20
-286.58250732421874
 10
56.324296739366318
 20
-286.58250732421874
 10
54.921281602647568
 20
-294.99990912543399
 97
        0
 75
     0
 76
     1
 98
        1
 10
0.0
 20
0.0
  0
MTEXT
  5
5EA
100
AcDbEntity
  8
0_0
 62
     7
100
AcDbMText
 10
34.177314
 20
56.236532
 30
0.0
 40
20.0
 41
0.0
 71
     1
 72
     2
  1
\fTxt|b0|i0;590
  7
STD
210
0.0
220
0.0
230
1.0
 11
0.0
 21
1.0
 31
0.0
  0
INSERT
  5
5E6
100
AcDbEntity
  8
0_0
 62
     7
100
AcDbBlockReference
  2
AI9-BLK123
 10
-60.778461
 20
295.000081
 30
0.0
  0
INSERT
  5
5E1
100
AcDbEntity
  8
0_0
 62
     7
100
AcDbBlockReference
  2
AI9-BLK122
 10
-51.98718
 20
-294.999909
 30
0.0
  0
INSERT
  5
5DC
100
AcDbEntity
  8
0_0
 62
     7
100
AcDbBlockReference
  2
AI9-BLK121
 10
54.921282
 20
-295.000081
 30
0.0
  0
ENDBLK
  5
5FA
100
AcDbEntity
  8
0_0
100
AcDbBlockEnd
  0
BLOCK
  5
5DD
100
AcDbEntity
  8
0_0
 62
     7
100
AcDbBlockBegin
  2
AI9-BLK121
 70
     0
 10
0.0
 20
0.0
 30
0.0
  3
AI9-BLK121
  1

  0
CIRCLE
  5
5DE
100
AcDbEntity
  8
0_0
 62
     7
100
AcDbCircle
 10
0.0
 20
0.000172
 30
0.0
 40
0.035312
  0
ENDBLK
  5
5DF
100
AcDbEntity
  8
0_0
100
AcDbBlockEnd
  0
BLOCK
  5
5E2
100
AcDbEntity
  8
0_0
 62
     7
100
AcDbBlockBegin
  2
AI9-BLK122
 70
     0
 10
0.0
 20
0.0
 30
0.0
  3
AI9-BLK122
  1

  0
CIRCLE
  5
5E3
100
AcDbEntity
  8
0_0
 62
     7
100
AcDbCircle
 10
0.0
 20
0.0
 30
0.0
 40
0.035226
  0
ENDBLK
  5
5E4
100
AcDbEntity
  8
0_0
100
AcDbBlockEnd
  0
BLOCK
  5
5E7
100
AcDbEntity
  8
0_0
 62
     7
100
AcDbBlockBegin
  2
AI9-BLK123
 70
     0
 10
0.0
 20
0.0
 30
0.0
  3
AI9-BLK123
  1

  0
CIRCLE
  5
5E8
100
AcDbEntity
  8
0_0
 62
     7
100
AcDbCircle
 10
0.0
 20
-0.000172
 30
0.0
 40
0.035312
  0
ENDBLK
  5
5E9
100
AcDbEntity
  8
0_0
100
AcDbBlockEnd
  0
BLOCK
  5
620
100
AcDbEntity
  8
0_0
 62
     7
100
AcDbBlockBegin
  2
AI9-BLK124
 70
     0
 10
0.0
 20
0.0
 30
0.0
  3
AI9-BLK124
  1

  0
LINE
  5
627
100
AcDbEntity
  8
0_0
 62
     7
100
AcDbLine
 10
15.164191
 20
43.669514
 30
0.0
 11
-17.925262
 21
-51.621139
 31
0.0
  0
POLYLINE
  5
622
100
AcDbEntity
  8
0_0
 62
     7
100
AcDb2dPolyline
 66
     1
 10
0.0
 20
0.0
 30
0.0
 70
     1
  0
VERTEX
  5
623
100
AcDbEntity
  8
0_0
 62
     7
100
AcDbVertex
100
AcDb2dVertex
 10
17.925262
 20
51.621139
 30
0.0
  0
VERTEX
  5
624
100
AcDbEntity
  8
0_0
 62
     7
100
AcDbVertex
100
AcDb2dVertex
 10
16.489347
 20
43.209249
 30
0.0
  0
VERTEX
  5
625
100
AcDbEntity
  8
0_0
 62
     7
100
AcDbVertex
100
AcDb2dVertex
 10
13.838862
 20
44.129778
 30
0.0
  0
SEQEND
  5
626
100
AcDbEntity
  8
0_0
 62
     7
  0
HATCH
  5
621
100
AcDbEntity
  8
0_0
 62
     7
100
AcDbHatch
 10
0.0
 20
0.0
 30
0.0
210
0.0
220
0.0
230
1.0
  2
SOLID
 70
     1
 71
     0
 91
        1
 92
        3
 72
     0
 73
     1
 93
        3
 10
17.925262451171875
 20
51.62113850911458
 10
16.489346652560762
 20
43.209248860677079
 10
13.838862440321179
 20
44.129778374565966
 97
        0
 75
     0
 76
     1
 98
        1
 10
0.0
 20
0.0
  0
ENDBLK
  5
628
100
AcDbEntity
  8
0_0
100
AcDbBlockEnd
  0
BLOCK
  5
62B
100
AcDbEntity
  8
0_0
 62
     7
100
AcDbBlockBegin
  2
AI9-BLK125
 70
     0
 10
0.0
 20
0.0
 30
0.0
  3
AI9-BLK125
  1

  0
LINE
  5
64A
100
AcDbEntity
  8
0_0
  6
AI9-LTYPE1
 62
     7
100
AcDbLine
 10
-90.660444
 20
449.999837
 30
0.0
 11
91.117608
 21
449.999837
 31
0.0
  0
LINE
  5
649
100
AcDbEntity
  8
0_0
  6
AI9-LTYPE1
 62
     7
100
AcDbLine
 10
10.944379
 20
-450.000353
 30
0.0
 11
91.117608
 21
-450.000353
 31
0.0
  0
LINE
  5
648
100
AcDbEntity
  8
0_0
  6
AI9-LTYPE1
 62
     7
100
AcDbLine
 10
86.90839
 20
441.582435
 30
0.0
 11
86.90839
 21
-441.582607
 31
0.0
  0
POLYLINE
  5
643
100
AcDbEntity
  8
0_0
  6
AI9-LTYPE1
 62
     7
100
AcDb2dPolyline
 66
     1
 10
0.0
 20
0.0
 30
0.0
 70
     1
  0
VERTEX
  5
644
100
AcDbEntity
  8
0_0
  6
AI9-LTYPE1
 62
     7
100
AcDbVertex
100
AcDb2dVertex
 10
85.505547
 20
441.582435
 30
0.0
  0
VERTEX
  5
645
100
AcDbEntity
  8
0_0
  6
AI9-LTYPE1
 62
     7
100
AcDbVertex
100
AcDb2dVertex
 10
88.311233
 20
441.582435
 30
0.0
  0
VERTEX
  5
646
100
AcDbEntity
  8
0_0
  6
AI9-LTYPE1
 62
     7
100
AcDbVertex
100
AcDb2dVertex
 10
86.90839
 20
449.999837
 30
0.0
  0
SEQEND
  5
647
100
AcDbEntity
  8
0_0
  6
AI9-LTYPE1
 62
     7
  0
HATCH
  5
642
100
AcDbEntity
  8
0_0
 62
     7
100
AcDbHatch
 10
0.0
 20
0.0
 30
0.0
210
0.0
220
0.0
230
1.0
  2
SOLID
 70
     1
 71
     0
 91
        1
 92
        3
 72
     0
 73
     1
 93
        3
 10
86.908390299479166
 20
449.9998365614149
 10
88.311233181423603
 20
441.58243476019959
 10
85.505547417534714
 20
441.58243476019959
 97
        0
 75
     0
 76
     1
 98
        1
 10
0.0
 20
0.0
  0
POLYLINE
  5
63D
100
AcDbEntity
  8
0_0
  6
AI9-LTYPE1
 62
     7
100
AcDb2dPolyline
 66
     1
 10
0.0
 20
0.0
 30
0.0
 70
     1
  0
VERTEX
  5
63E
100
AcDbEntity
  8
0_0
  6
AI9-LTYPE1
 62
     7
100
AcDbVertex
100
AcDb2dVertex
 10
85.505547
 20
-441.582607
 30
0.0
  0
VERTEX
  5
63F
100
AcDbEntity
  8
0_0
  6
AI9-LTYPE1
 62
     7
100
AcDbVertex
100
AcDb2dVertex
 10
88.311233
 20
-441.582607
 30
0.0
  0
VERTEX
  5
640
100
AcDbEntity
  8
0_0
  6
AI9-LTYPE1
 62
     7
100
AcDbVertex
100
AcDb2dVertex
 10
86.90839
 20
-450.000353
 30
0.0
  0
SEQEND
  5
641
100
AcDbEntity
  8
0_0
  6
AI9-LTYPE1
 62
     7
  0
HATCH
  5
63C
100
AcDbEntity
  8
0_0
 62
     7
100
AcDbHatch
 10
0.0
 20
0.0
 30
0.0
210
0.0
220
0.0
230
1.0
  2
SOLID
 70
     1
 71
     0
 91
        1
 92
        3
 72
     0
 73
     1
 93
        3
 10
85.505547417534714
 20
-441.58260701497392
 10
88.311233181423603
 20
-441.58260701497392
 10
86.908390299479166
 20
-450.00035332573782
 97
        0
 75
     0
 76
     1
 98
        1
 10
0.0
 20
0.0
  0
MTEXT
  5
63B
100
AcDbEntity
  8
0_0
 62
     7
100
AcDbMText
 10
66.163561
 20
-17.751803
 30
0.0
 40
20.0
 41
0.0
 71
     1
 72
     2
  1
\fTxt|b0|i0;90
  7
STD
210
0.0
220
0.0
230
1.0
 11
0.0
 21
1.0
 31
0.0
  0
INSERT
  5
637
100
AcDbEntity
  8
0_0
 62
     7
100
AcDbBlockReference
  2
AI9-BLK128
 10
-92.764708
 20
450.000009
 30
0.0
  0
INSERT
  5
632
100
AcDbEntity
  8
0_0
 62
     7
100
AcDbBlockReference
  2
AI9-BLK127
 10
8.840029
 20
-450.000181
 30
0.0
  0
INSERT
  5
62D
100
AcDbEntity
  8
0_0
 62
     7
100
AcDbBlockReference
  2
AI9-BLK126
 10
86.90839
 20
-450.000181
 30
0.0
  0
ENDBLK
  5
64B
100
AcDbEntity
  8
0_0
100
AcDbBlockEnd
  0
BLOCK
  5
62E
100
AcDbEntity
  8
0_0
 62
     7
100
AcDbBlockBegin
  2
AI9-BLK126
 70
     0
 10
0.0
 20
0.0
 30
0.0
  3
AI9-BLK126
  1

  0
CIRCLE
  5
62F
100
AcDbEntity
  8
0_0
 62
     7
100
AcDbCircle
 10
0.0
 20
-0.000172
 30
0.0
 40
0.03514
  0
ENDBLK
  5
630
100
AcDbEntity
  8
0_0
100
AcDbBlockEnd
  0
BLOCK
  5
633
100
AcDbEntity
  8
0_0
 62
     7
100
AcDbBlockBegin
  2
AI9-BLK127
 70
     0
 10
0.0
 20
0.0
 30
0.0
  3
AI9-BLK127
  1

  0
CIRCLE
  5
634
100
AcDbEntity
  8
0_0
 62
     7
100
AcDbCircle
 10
0.0
 20
-0.000172
 30
0.0
 40
0.035226
  0
ENDBLK
  5
635
100
AcDbEntity
  8
0_0
100
AcDbBlockEnd
  0
BLOCK
  5
638
100
AcDbEntity
  8
0_0
 62
     7
100
AcDbBlockBegin
  2
AI9-BLK128
 70
     0
 10
0.0
 20
0.0
 30
0.0
  3
AI9-BLK128
  1

  0
CIRCLE
  5
639
100
AcDbEntity
  8
0_0
 62
     7
100
AcDbCircle
 10
0.0
 20
-0.000172
 30
0.0
 40
0.035312
  0
ENDBLK
  5
63A
100
AcDbEntity
  8
0_0
100
AcDbBlockEnd
  0
BLOCK
  5
658
100
AcDbEntity
  8
0_0
 62
     7
100
AcDbBlockBegin
  2
AI9-BLK129
 70
     0
 10
0.0
 20
0.0
 30
0.0
  3
AI9-BLK129
  1

  0
LINE
  5
662
100
AcDbEntity
  8
0_0
 62
     7
100
AcDbLine
 10
-47.499943
 20
9.196338
 30
0.0
 11
4.999867
 21
9.196338
 31
0.0
  0
LINE
  5
661
100
AcDbEntity
  8
0_0
 62
     7
100
AcDbLine
 10
-47.499943
 20
5.195893
 30
0.0
 11
4.999867
 21
5.195893
 31
0.0
  0
LINE
  5
660
100
AcDbEntity
  8
0_0
 62
     7
100
AcDbLine
 10
-47.499943
 20
9.196338
 30
0.0
 11
-47.499943
 21
5.195893
 31
0.0
  0
LINE
  5
65F
100
AcDbEntity
  8
0_0
 62
     7
100
AcDbLine
 10
16.999996
 20
5.195893
 30
0.0
 11
47.499943
 21
5.195893
 31
0.0
  0
LINE
  5
65E
100
AcDbEntity
  8
0_0
 62
     7
100
AcDbLine
 10
16.999996
 20
1.195793
 30
0.0
 11
47.499943
 21
1.195793
 31
0.0
  0
LINE
  5
65D
100
AcDbEntity
  8
0_0
 62
     7
100
AcDbLine
 10
4.999867
 20
9.196338
 30
0.0
 11
16.999996
 21
5.195893
 31
0.0
  0
LINE
  5
65C
100
AcDbEntity
  8
0_0
 62
     7
100
AcDbLine
 10
4.999867
 20
5.195893
 30
0.0
 11
16.999996
 21
1.195793
 31
0.0
  0
LINE
  5
65B
100
AcDbEntity
  8
0_0
 62
     7
100
AcDbLine
 10
42.500076
 20
5.195893
 30
0.0
 11
42.500076
 21
1.195793
 31
0.0
  0
LINE
  5
65A
100
AcDbEntity
  8
0_0
 62
     7
100
AcDbLine
 10
37.499864
 20
5.195893
 30
0.0
 11
37.499864
 21
-9.196338
 31
0.0
  0
LINE
  5
659
100
AcDbEntity
  8
0_0
 62
     7
100
AcDbLine
 10
47.499943
 20
5.195893
 30
0.0
 11
47.499943
 21
-9.196338
 31
0.0
  0
ENDBLK
  5
663
100
AcDbEntity
  8
0_0
100
AcDbBlockEnd
  0
BLOCK
  5
666
100
AcDbEntity
  8
0_0
 62
     7
100
AcDbBlockBegin
  2
AI9-BLK130
 70
     0
 10
0.0
 20
0.0
 30
0.0
  3
AI9-BLK130
  1

  0
LINE
  5
683
100
AcDbEntity
  8
0_0
  6
AI9-LTYPE2
 62
     7
100
AcDbLine
 10
-63.750114
 20
33.000053
 30
0.0
 11
-11.249615
 21
33.000053
 31
0.0
  0
LINE
  5
682
100
AcDbEntity
  8
0_0
  6
AI9-LTYPE2
 62
     7
100
AcDbLine
 10
-63.750114
 20
28.999953
 30
0.0
 11
-11.249615
 21
28.999953
 31
0.0
  0
LINE
  5
681
100
AcDbEntity
  8
0_0
  6
AI9-LTYPE2
 62
     7
100
AcDbLine
 10
-63.750114
 20
33.000053
 30
0.0
 11
-63.750114
 21
28.999953
 31
0.0
  0
LINE
  5
680
100
AcDbEntity
  8
0_0
  6
AI9-LTYPE2
 62
     7
100
AcDbLine
 10
26.25025
 20
14.999773
 30
0.0
 11
26.25025
 21
-33.000053
 31
0.0
  0
LINE
  5
67F
100
AcDbEntity
  8
0_0
  6
AI9-LTYPE2
 62
     7
100
AcDbLine
 10
51.750157
 20
14.999773
 30
0.0
 11
51.750157
 21
-33.000053
 31
0.0
  0
LINE
  5
67E
100
AcDbEntity
  8
0_0
  6
AI9-LTYPE2
 62
     7
100
AcDbLine
 10
0.750342
 20
14.999773
 30
0.0
 11
0.750342
 21
-33.000053
 31
0.0
  0
LINE
  5
67D
100
AcDbEntity
  8
0_0
  6
AI9-LTYPE2
 62
     7
100
AcDbLine
 10
-11.249615
 20
14.999773
 30
0.0
 11
-11.249615
 21
-33.000053
 31
0.0
  0
LINE
  5
67C
100
AcDbEntity
  8
0_0
  6
AI9-LTYPE2
 62
     7
100
AcDbLine
 10
63.750114
 20
14.999773
 30
0.0
 11
63.750114
 21
-33.000053
 31
0.0
  0
LINE
  5
67B
100
AcDbEntity
  8
0_0
  6
AI9-LTYPE2
 62
     7
100
AcDbLine
 10
0.750342
 20
-31.000175
 30
0.0
 11
26.25025
 21
-33.000053
 31
0.0
  0
LINE
  5
67A
100
AcDbEntity
  8
0_0
  6
AI9-LTYPE2
 62
     7
100
AcDbLine
 10
-11.249615
 20
-33.000053
 30
0.0
 11
0.750342
 21
-33.000053
 31
0.0
  0
LINE
  5
679
100
AcDbEntity
  8
0_0
  6
AI9-LTYPE2
 62
     7
100
AcDbLine
 10
-11.249615
 20
-21.000096
 30
0.0
 11
0.750342
 21
-21.000096
 31
0.0
  0
LINE
  5
678
100
AcDbEntity
  8
0_0
  6
AI9-LTYPE2
 62
     7
100
AcDbLine
 10
21.250038
 20
-32.608001
 30
0.0
 11
21.250038
 21
-33.000053
 31
0.0
  0
LINE
  5
677
100
AcDbEntity
  8
0_0
  6
AI9-LTYPE2
 62
     7
100
AcDbLine
 10
26.25025
 20
-33.000053
 30
0.0
 11
51.750157
 21
-31.000175
 31
0.0
  0
LINE
  5
676
100
AcDbEntity
  8
0_0
  6
AI9-LTYPE2
 62
     7
100
AcDbLine
 10
31.249772
 20
-32.608001
 30
0.0
 11
31.249772
 21
-33.000053
 31
0.0
  0
LINE
  5
675
100
AcDbEntity
  8
0_0
  6
AI9-LTYPE2
 62
     7
100
AcDbLine
 10
51.750157
 20
-33.000053
 30
0.0
 11
63.750114
 21
-33.000053
 31
0.0
  0
LINE
  5
674
100
AcDbEntity
  8
0_0
  6
AI9-LTYPE2
 62
     7
100
AcDbLine
 10
51.750157
 20
-21.000096
 30
0.0
 11
63.750114
 21
-21.000096
 31
0.0
  0
LINE
  5
673
100
AcDbEntity
  8
0_0
  6
AI9-LTYPE2
 62
     7
100
AcDbLine
 10
31.249772
 20
28.999953
 30
0.0
 11
31.249772
 21
14.607722
 31
0.0
  0
LINE
  5
672
100
AcDbEntity
  8
0_0
  6
AI9-LTYPE2
 62
     7
100
AcDbLine
 10
21.250038
 20
28.999953
 30
0.0
 11
21.250038
 21
14.607722
 31
0.0
  0
LINE
  5
671
100
AcDbEntity
  8
0_0
  6
AI9-LTYPE2
 62
     7
100
AcDbLine
 10
0.750342
 20
12.999896
 30
0.0
 11
26.25025
 21
14.999773
 31
0.0
  0
LINE
  5
670
100
AcDbEntity
  8
0_0
  6
AI9-LTYPE2
 62
     7
100
AcDbLine
 10
-11.249615
 20
2.999817
 30
0.0
 11
0.750342
 21
2.999817
 31
0.0
  0
LINE
  5
66F
100
AcDbEntity
  8
0_0
  6
AI9-LTYPE2
 62
     7
100
AcDbLine
 10
-11.249615
 20
14.999773
 30
0.0
 11
0.750342
 21
14.999773
 31
0.0
  0
LINE
  5
66E
100
AcDbEntity
  8
0_0
  6
AI9-LTYPE2
 62
     7
100
AcDbLine
 10
26.25025
 20
14.999773
 30
0.0
 11
51.750157
 21
12.999896
 31
0.0
  0
LINE
  5
66D
100
AcDbEntity
  8
0_0
  6
AI9-LTYPE2
 62
     7
100
AcDbLine
 10
51.750157
 20
2.999817
 30
0.0
 11
63.750114
 21
2.999817
 31
0.0
  0
LINE
  5
66C
100
AcDbEntity
  8
0_0
  6
AI9-LTYPE2
 62
     7
100
AcDbLine
 10
51.750157
 20
14.999773
 30
0.0
 11
63.750114
 21
14.999773
 31
0.0
  0
LINE
  5
66B
100
AcDbEntity
  8
0_0
  6
AI9-LTYPE2
 62
     7
100
AcDbLine
 10
0.750342
 20
28.999953
 30
0.0
 11
31.249772
 21
28.999953
 31
0.0
  0
LINE
  5
66A
100
AcDbEntity
  8
0_0
  6
AI9-LTYPE2
 62
     7
100
AcDbLine
 10
0.750342
 20
24.999852
 30
0.0
 11
31.249772
 21
24.999852
 31
0.0
  0
LINE
  5
669
100
AcDbEntity
  8
0_0
  6
AI9-LTYPE2
 62
     7
100
AcDbLine
 10
-11.249615
 20
33.000053
 30
0.0
 11
0.750342
 21
28.999953
 31
0.0
  0
LINE
  5
668
100
AcDbEntity
  8
0_0
  6
AI9-LTYPE2
 62
     7
100
AcDbLine
 10
-11.249615
 20
28.999953
 30
0.0
 11
0.750342
 21
24.999852
 31
0.0
  0
LINE
  5
667
100
AcDbEntity
  8
0_0
  6
AI9-LTYPE2
 62
     7
100
AcDbLine
 10
26.25025
 20
28.999953
 30
0.0
 11
26.25025
 21
24.999852
 31
0.0
  0
ENDBLK
  5
684
100
AcDbEntity
  8
0_0
100
AcDbBlockEnd
  0
BLOCK
  5
687
100
AcDbEntity
  8
0_0
  6
AI9-LTYPE2
 62
     7
100
AcDbBlockBegin
  2
AI9-BLK131
 70
     0
 10
0.0
 20
0.0
 30
0.0
  3
AI9-BLK131
  1

  0
LINE
  5
6A4
100
AcDbEntity
  8
0_0
  6
AI9-LTYPE2
 62
     7
100
AcDbLine
 10
-63.749769
 20
33.000053
 30
0.0
 11
-11.249959
 21
33.000053
 31
0.0
  0
LINE
  5
6A3
100
AcDbEntity
  8
0_0
  6
AI9-LTYPE2
 62
     7
100
AcDbLine
 10
-63.749769
 20
28.999953
 30
0.0
 11
-11.249959
 21
28.999953
 31
0.0
  0
LINE
  5
6A2
100
AcDbEntity
  8
0_0
  6
AI9-LTYPE2
 62
     7
100
AcDbLine
 10
-63.749769
 20
33.000053
 30
0.0
 11
-63.749769
 21
28.999953
 31
0.0
  0
LINE
  5
6A1
100
AcDbEntity
  8
0_0
  6
AI9-LTYPE2
 62
     7
100
AcDbLine
 10
26.249905
 20
15.000118
 30
0.0
 11
26.249905
 21
-33.000053
 31
0.0
  0
LINE
  5
6A0
100
AcDbEntity
  8
0_0
  6
AI9-LTYPE2
 62
     7
100
AcDbLine
 10
51.749813
 20
15.000118
 30
0.0
 11
51.749813
 21
-33.000053
 31
0.0
  0
LINE
  5
69F
100
AcDbEntity
  8
0_0
  6
AI9-LTYPE2
 62
     7
100
AcDbLine
 10
0.749997
 20
15.000118
 30
0.0
 11
0.749997
 21
-33.000053
 31
0.0
  0
LINE
  5
69E
100
AcDbEntity
  8
0_0
  6
AI9-LTYPE2
 62
     7
100
AcDbLine
 10
-11.249959
 20
15.000118
 30
0.0
 11
-11.249959
 21
-33.000053
 31
0.0
  0
LINE
  5
69D
100
AcDbEntity
  8
0_0
  6
AI9-LTYPE2
 62
     7
100
AcDbLine
 10
63.749769
 20
15.000118
 30
0.0
 11
63.749769
 21
-33.000053
 31
0.0
  0
LINE
  5
69C
100
AcDbEntity
  8
0_0
  6
AI9-LTYPE2
 62
     7
100
AcDbLine
 10
0.749997
 20
-31.000175
 30
0.0
 11
26.249905
 21
-33.000053
 31
0.0
  0
LINE
  5
69B
100
AcDbEntity
  8
0_0
  6
AI9-LTYPE2
 62
     7
100
AcDbLine
 10
-11.249959
 20
-33.000053
 30
0.0
 11
0.749997
 21
-33.000053
 31
0.0
  0
LINE
  5
69A
100
AcDbEntity
  8
0_0
  6
AI9-LTYPE2
 62
     7
100
AcDbLine
 10
-11.249959
 20
-21.000096
 30
0.0
 11
0.749997
 21
-21.000096
 31
0.0
  0
LINE
  5
699
100
AcDbEntity
  8
0_0
  6
AI9-LTYPE2
 62
     7
100
AcDbLine
 10
21.250382
 20
-32.607657
 30
0.0
 11
21.250382
 21
-33.000053
 31
0.0
  0
LINE
  5
698
100
AcDbEntity
  8
0_0
  6
AI9-LTYPE2
 62
     7
100
AcDbLine
 10
26.249905
 20
-33.000053
 30
0.0
 11
51.749813
 21
-31.000175
 31
0.0
  0
LINE
  5
697
100
AcDbEntity
  8
0_0
  6
AI9-LTYPE2
 62
     7
100
AcDbLine
 10
31.250117
 20
-32.607657
 30
0.0
 11
31.250117
 21
-33.000053
 31
0.0
  0
LINE
  5
696
100
AcDbEntity
  8
0_0
  6
AI9-LTYPE2
 62
     7
100
AcDbLine
 10
51.749813
 20
-33.000053
 30
0.0
 11
63.749769
 21
-33.000053
 31
0.0
  0
LINE
  5
695
100
AcDbEntity
  8
0_0
  6
AI9-LTYPE2
 62
     7
100
AcDbLine
 10
51.749813
 20
-21.000096
 30
0.0
 11
63.749769
 21
-21.000096
 31
0.0
  0
LINE
  5
694
100
AcDbEntity
  8
0_0
  6
AI9-LTYPE2
 62
     7
100
AcDbLine
 10
31.250117
 20
28.999953
 30
0.0
 11
31.250117
 21
14.607722
 31
0.0
  0
LINE
  5
693
100
AcDbEntity
  8
0_0
  6
AI9-LTYPE2
 62
     7
100
AcDbLine
 10
21.250382
 20
28.999953
 30
0.0
 11
21.250382
 21
14.607722
 31
0.0
  0
LINE
  5
692
100
AcDbEntity
  8
0_0
  6
AI9-LTYPE2
 62
     7
100
AcDbLine
 10
0.749997
 20
12.999896
 30
0.0
 11
26.249905
 21
15.000118
 31
0.0
  0
LINE
  5
691
100
AcDbEntity
  8
0_0
  6
AI9-LTYPE2
 62
     7
100
AcDbLine
 10
-11.249959
 20
3.000161
 30
0.0
 11
0.749997
 21
3.000161
 31
0.0
  0
LINE
  5
690
100
AcDbEntity
  8
0_0
  6
AI9-LTYPE2
 62
     7
100
AcDbLine
 10
-11.249959
 20
15.000118
 30
0.0
 11
0.749997
 21
15.000118
 31
0.0
  0
LINE
  5
68F
100
AcDbEntity
  8
0_0
  6
AI9-LTYPE2
 62
     7
100
AcDbLine
 10
26.249905
 20
15.000118
 30
0.0
 11
51.749813
 21
12.999896
 31
0.0
  0
LINE
  5
68E
100
AcDbEntity
  8
0_0
  6
AI9-LTYPE2
 62
     7
100
AcDbLine
 10
51.749813
 20
3.000161
 30
0.0
 11
63.749769
 21
3.000161
 31
0.0
  0
LINE
  5
68D
100
AcDbEntity
  8
0_0
  6
AI9-LTYPE2
 62
     7
100
AcDbLine
 10
51.749813
 20
15.000118
 30
0.0
 11
63.749769
 21
15.000118
 31
0.0
  0
LINE
  5
68C
100
AcDbEntity
  8
0_0
  6
AI9-LTYPE2
 62
     7
100
AcDbLine
 10
0.749997
 20
28.999953
 30
0.0
 11
31.250117
 21
28.999953
 31
0.0
  0
LINE
  5
68B
100
AcDbEntity
  8
0_0
  6
AI9-LTYPE2
 62
     7
100
AcDbLine
 10
0.749997
 20
24.999852
 30
0.0
 11
31.250117
 21
24.999852
 31
0.0
  0
LINE
  5
68A
100
AcDbEntity
  8
0_0
  6
AI9-LTYPE2
 62
     7
100
AcDbLine
 10
-11.249959
 20
33.000053
 30
0.0
 11
0.749997
 21
28.999953
 31
0.0
  0
LINE
  5
689
100
AcDbEntity
  8
0_0
  6
AI9-LTYPE2
 62
     7
100
AcDbLine
 10
-11.249959
 20
28.999953
 30
0.0
 11
0.749997
 21
24.999852
 31
0.0
  0
LINE
  5
688
100
AcDbEntity
  8
0_0
  6
AI9-LTYPE2
 62
     7
100
AcDbLine
 10
26.249905
 20
28.999953
 30
0.0
 11
26.249905
 21
24.999852
 31
0.0
  0
ENDBLK
  5
6A5
100
AcDbEntity
  8
0_0
100
AcDbBlockEnd
  0
ENDSEC
  0
SECTION
  2
ENTITIES
  0
LINE
  5
6C0
100
AcDbEntity
  8
0_0
 62
     7
100
AcDbLine
 10
-795.144747
 20
1076.053526
 30
0.0
 11
-795.144747
 21
486.053708
 31
0.0
  0
LINE
  5
6BF
100
AcDbEntity
  8
0_0
 62
     7
100
AcDbLine
 10
-795.144747
 20
76.632704
 30
0.0
 11
-415.144858
 21
76.632704
 31
0.0
  0
LINE
  5
6BE
100
AcDbEntity
  8
0_0
 62
     7
100
AcDbLine
 10
-795.144747
 20
176.632802
 30
0.0
 11
-415.144858
 21
176.632802
 31
0.0
  0
LINE
  5
6BD
100
AcDbEntity
  8
0_0
 62
     7
100
AcDbLine
 10
480.351731
 20
76.632704
 30
0.0
 11
480.351731
 21
51.63268
 31
0.0
  0
LINE
  5
6BC
100
AcDbEntity
  8
0_0
 62
     7
100
AcDbLine
 10
1070.351893
 20
176.632802
 30
0.0
 11
1070.351893
 21
51.63268
 31
0.0
  0
LINE
  5
6BB
100
AcDbEntity
  8
0_0
 62
     7
100
AcDbLine
 10
-795.144747
 20
486.053708
 30
0.0
 11
-415.144858
 21
486.053708
 31
0.0
  0
LINE
  5
6BA
100
AcDbEntity
  8
0_0
 62
     7
100
AcDbLine
 10
-795.144747
 20
1076.053526
 30
0.0
 11
-415.144858
 21
1076.053526
 31
0.0
  0
LINE
  5
6B9
100
AcDbEntity
  8
0_0
 62
     7
100
AcDbLine
 10
-795.144747
 20
76.632704
 30
0.0
 11
-795.144747
 21
46.632812
 31
0.0
  0
LINE
  5
6B8
100
AcDbEntity
  8
0_0
 62
     7
100
AcDbLine
 10
980.352219
 20
176.632802
 30
0.0
 11
1070.351893
 21
176.632802
 31
0.0
  0
LINE
  5
6B7
100
AcDbEntity
  8
0_0
 62
     7
100
AcDbLine
 10
480.351731
 20
76.632704
 30
0.0
 11
1070.351893
 21
76.632704
 31
0.0
  0
LINE
  5
6B6
100
AcDbEntity
  8
0_0
 62
     7
100
AcDbLine
 10
-795.144747
 20
46.632812
 30
0.0
 11
-415.144858
 21
46.632812
 31
0.0
  0
LINE
  5
6B5
100
AcDbEntity
  8
0_0
 62
     7
100
AcDbLine
 10
480.351731
 20
51.63268
 30
0.0
 11
1070.351893
 21
51.63268
 31
0.0
  0
LINE
  5
6B4
100
AcDbEntity
  8
0_0
 62
     7
100
AcDbLine
 10
-745.144698
 20
46.632812
 30
0.0
 11
-745.144698
 21
-683.367074
 31
0.0
  0
LINE
  5
6B3
100
AcDbEntity
  8
0_0
 62
     7
100
AcDbLine
 10
-465.144735
 20
-58.367152
 30
0.0
 11
-465.144735
 21
-178.367063
 31
0.0
  0
LINE
  5
6B2
100
AcDbEntity
  8
0_0
 62
     7
100
AcDbLine
 10
-795.144747
 20
176.632802
 30
0.0
 11
-795.144747
 21
76.632704
 31
0.0
  0
LINE
  5
6B1
100
AcDbEntity
  8
0_0
 62
     7
100
AcDbLine
 10
-795.144747
 20
986.053507
 30
0.0
 11
-415.144858
 21
986.053507
 31
0.0
  0
LINE
  5
6B0
100
AcDbEntity
  8
0_0
 62
     7
100
AcDbLine
 10
446.604264
 20
-723.367388
 30
0.0
 11
1160.346056
 21
-723.367388
 31
0.0
  0
LINE
  5
6AF
100
AcDbEntity
  8
0_0
 62
     7
100
AcDbLine
 10
490.352154
 20
51.63268
 30
0.0
 11
490.352154
 21
-683.367074
 31
0.0
  0
LINE
  5
6AE
100
AcDbEntity
  8
0_0
 62
     7
100
AcDbLine
 10
980.352219
 20
176.632802
 30
0.0
 11
980.352219
 21
76.632704
 31
0.0
  0
LINE
  5
6AD
100
AcDbEntity
  8
0_0
 62
     7
100
AcDbLine
 10
1065.351682
 20
51.63268
 30
0.0
 11
1065.351682
 21
-683.367074
 31
0.0
  0
SPLINE
  5
6AC
100
AcDbEntity
  8
0_0
  6
AI9-LTYPE2
 62
     7
100
AcDbSpline
210
0.0
220
0.0
230
1.0
 70
     8
 71
     3
 72
    11
 73
     7
 74
     0
 42
0.00000001
 43
0.00000001
 40
0.0
 40
0.0
 40
0.0
 40
0.0
 40
1.0
 40
1.0
 40
1.0
 40
2.0
 40
2.0
 40
2.0
 40
2.0
 10
591.30861002604161
 20
-232.24491102430554
 30
0.0
 10
579.71035156249991
 20
-232.24491102430554
 30
0.0
 10
570.30868598090274
 20
-241.64726562499999
 30
0.0
 10
570.30868598090274
 20
-253.24517957899303
 30
0.0
 10
570.30868598090274
 20
-264.84309353298607
 30
0.0
 10
579.71035156249991
 20
-274.2451036241319
 30
0.0
 10
591.30861002604161
 20
-274.2451036241319
 30
0.0
  0
LINE
  5
6AB
100
AcDbEntity
  8
0_0
  6
AI9-LTYPE2
 62
     7
100
AcDbLine
 10
591.30861
 20
-232.244911
 30
0.0
 11
725.351763
 21
-232.244911
 31
0.0
  0
LINE
  5
6AA
100
AcDbEntity
  8
0_0
  6
AI9-LTYPE2
 62
     7
100
AcDbLine
 10
591.30861
 20
-274.245104
 30
0.0
 11
725.351763
 21
-274.245104
 31
0.0
  0
LINE
  5
6A9
100
AcDbEntity
  8
0_0
  6
AI9-LTYPE2
 62
     7
100
AcDbLine
 10
591.30861
 20
-232.244911
 30
0.0
 11
559.232704
 21
-240.959969
 31
0.0
  0
LINE
  5
6A8
100
AcDbEntity
  8
0_0
  6
AI9-LTYPE2
 62
     7
100
AcDbLine
 10
602.320513
 20
-272.77577
 30
0.0
 11
559.022553
 21
-281.490828
 31
0.0
  0
LINE
  5
6A7
100
AcDbEntity
  8
0_0
  6
AI9-LTYPE2
 62
     7
100
AcDbLine
 10
616.93323
 20
-232.244911
 30
0.0
 11
616.93323
 21
-274.245104
 31
0.0
  0
CIRCLE
  5
6A6
100
AcDbEntity
  8
0_0
 62
     7
100
AcDbCircle
 10
-605.144716
 20
-460.687815
 30
0.0
 40
24.999938
  0
INSERT
  5
686
100
AcDbEntity
  8
0_0
  6
AI9-LTYPE2
 62
     7
100
AcDbBlockReference
  2
AI9-BLK131
 10
658.907929
 20
-457.253916
 30
0.0
  0
INSERT
  5
665
100
AcDbEntity
  8
0_0
 62
     7
100
AcDbBlockReference
  2
AI9-BLK130
 10
493.027615
 20
-253.159569
 30
0.0
  0
INSERT
  5
657
100
AcDbEntity
  8
0_0
 62
     7
100
AcDbBlockReference
  2
AI9-BLK129
 10
-647.980948
 20
-423.512823
 30
0.0
  0
LINE
  5
655
100
AcDbEntity
  8
0_0
 62
     7
100
AcDbLine
 10
411.509077
 20
1039.010482
 30
0.0
 11
1112.225651
 21
1039.010482
 31
0.0
  0
LINE
  5
654
100
AcDbEntity
  8
0_0
 62
     7
100
AcDbLine
 10
411.509077
 20
989.010777
 30
0.0
 11
1112.225651
 21
989.010777
 31
0.0
  0
LINE
  5
653
100
AcDbEntity
  8
0_0
 62
     7
100
AcDbLine
 10
411.509077
 20
939.010729
 30
0.0
 11
1112.225651
 21
939.010729
 31
0.0
  0
LINE
  5
652
100
AcDbEntity
  8
0_0
 62
     7
100
AcDbLine
 10
411.509077
 20
889.01068
 30
0.0
 11
1112.225651
 21
889.01068
 31
0.0
  0
LINE
  5
651
100
AcDbEntity
  8
0_0
 62
     7
100
AcDbLine
 10
411.509077
 20
839.010631
 30
0.0
 11
1112.225651
 21
839.010631
 31
0.0
  0
LINE
  5
650
100
AcDbEntity
  8
0_0
 62
     7
100
AcDbLine
 10
411.509077
 20
789.010582
 30
0.0
 11
1112.225651
 21
789.010582
 31
0.0
  0
LINE
  5
64F
100
AcDbEntity
  8
0_0
 62
     7
100
AcDbLine
 10
411.509077
 20
739.010533
 30
0.0
 11
1112.225651
 21
739.010533
 31
0.0
  0
LINE
  5
64E
100
AcDbEntity
  8
0_0
 62
     7
100
AcDbLine
 10
411.509077
 20
689.010484
 30
0.0
 11
1112.225651
 21
689.010484
 31
0.0
  0
LINE
  5
64D
100
AcDbEntity
  8
0_0
 62
     7
100
AcDbLine
 10
411.509077
 20
639.01078
 30
0.0
 11
1112.225651
 21
639.01078
 31
0.0
  0
LINE
  5
64C
100
AcDbEntity
  8
0_0
 62
     7
100
AcDbLine
 10
411.509077
 20
1039.010482
 30
0.0
 11
411.509077
 21
639.01078
 31
0.0
  0
INSERT
  5
62A
100
AcDbEntity
  8
0_0
 62
     7
100
AcDbBlockReference
  2
AI9-BLK125
 10
31.692467
 20
-273.367035
 30
0.0
  0
INSERT
  5
61F
100
AcDbEntity
  8
0_0
 62
     7
100
AcDbBlockReference
  2
AI9-BLK124
 10
-624.742659
 20
-526.481731
 30
0.0
  0
MTEXT
  5
61D
100
AcDbEntity
  8
0_0
 62
     7
100
AcDbMText
 10
-636.709284
 20
-552.278592
 30
0.0
 40
20.0
 41
0.0
 71
     1
 72
     2
  1
\fMS UI Gothic|b0|i0|c128;排水バルブ　４０A
  7
KANJISTD
210
0.0
220
0.0
230
1.0
 11
1.000001
 21
0.0
 31
0.0
  0
MTEXT
  5
61C
100
AcDbEntity
  8
0_0
 62
     7
100
AcDbMText
 10
778.298747
 20
-196.3706
 30
0.0
 40
20.0
 41
0.0
 71
     1
 72
     2
  1
\fMS UI Gothic|b0|i0|c128;空冷管
  7
KANJISTD
210
0.0
220
0.0
230
1.0
 11
1.000001
 21
0.0
 31
0.0
  0
MTEXT
  5
61B
100
AcDbEntity
  8
0_0
 62
     7
100
AcDbMText
 10
426.337457
 20
933.233413
 30
0.0
 40
30.000001
 41
0.0
 71
     1
 72
     2
  1
\fMS UI Gothic|b0|i0|c128;油槽寸法
  7
KANJISTD
210
0.0
220
0.0
230
1.0
 11
1.000001
 21
0.0
 31
0.0
  0
MTEXT
  5
61A
100
AcDbEntity
  8
0_0
 62
     7
100
AcDbMText
 10
423.543484
 20
834.584481
 30
0.0
 40
30.000001
 41
0.0
 71
     1
 72
     2
  1
\fMS UI Gothic|b0|i0|c128;制御範囲
  7
KANJISTD
210
0.0
220
0.0
230
1.0
 11
1.000001
 21
0.0
 31
0.0
  0
MTEXT
  5
619
100
AcDbEntity
  8
0_0
 62
     7
100
AcDbMText
 10
423.543484
 20
779.676205
 30
0.0
 40
30.000001
 41
0.0
 71
     1
 72
     2
  1
\fMS UI Gothic|b0|i0|c128;制御方法
  7
KANJISTD
210
0.0
220
0.0
230
1.0
 11
1.000001
 21
0.0
 31
0.0
  0
MTEXT
  5
618
100
AcDbEntity
  8
0_0
 62
     7
100
AcDbMText
 10
428.199875
 20
1035.604769
 30
0.0
 40
30.000001
 41
0.0
 71
     1
 72
     2
  1
\fMS UI Gothic|b0|i0|c128;型　　　式
  7
KANJISTD
210
0.0
220
0.0
230
1.0
 11
1.000001
 21
0.0
 31
0.0
  0
MTEXT
  5
617
100
AcDbEntity
  8
0_0
 62
     7
100
AcDbMText
 10
428.199875
 20
980.696493
 30
0.0
 40
30.000001
 41
0.0
 71
     1
 72
     2
  1
\fMS UI Gothic|b0|i0|c128;寸　　　法
  7
KANJISTD
210
0.0
220
0.0
230
1.0
 11
1.000001
 21
0.0
 31
0.0
  0
MTEXT
  5
616
100
AcDbEntity
  8
0_0
 62
     7
100
AcDbMText
 10
426.337457
 20
882.047562
 30
0.0
 40
30.000001
 41
0.0
 71
     1
 72
     2
  1
\fMS UI Gothic|b0|i0|c128;油　　　量
  7
KANJISTD
210
0.0
220
0.0
230
1.0
 11
1.000001
 21
0.0
 31
0.0
  0
MTEXT
  5
615
100
AcDbEntity
  8
0_0
 62
     7
100
AcDbMText
 10
423.543484
 20
681.958139
 30
0.0
 40
30.000001
 41
0.0
 71
     1
 72
     2
  1
\fMS UI Gothic|b0|i0|c128;重　　　量
  7
KANJISTD
210
0.0
220
0.0
230
1.0
 11
1.000001
 21
0.0
 31
0.0
  0
LINE
  5
614
100
AcDbEntity
  8
0_0
 62
     7
100
AcDbLine
 10
611.509272
 20
1039.010482
 30
0.0
 11
611.509272
 21
639.01078
 31
0.0
  0
MTEXT
  5
613
100
AcDbEntity
  8
0_0
 62
     7
100
AcDbMText
 10
638.170177
 20
1030.020959
 30
0.0
 40
30.000001
 41
0.0
 71
     1
 72
     2
  1
\fMS UI Gothic|b0|i0|c128;ＳＴ－６０ＷＴ型
  7
KANJISTD
210
0.0
220
0.0
230
1.0
 11
1.000001
 21
0.0
 31
0.0
  0
MTEXT
  5
612
100
AcDbEntity
  8
0_0
 62
     7
100
AcDbMText
 10
638.170177
 20
978.652862
 30
0.0
 40
30.000001
 41
0.0
 71
     1
 72
     2
  1
\fMS UI Gothic|b0|i0|c128;W７２０×D５９０×H８００
  7
KANJISTD
210
0.0
220
0.0
230
1.0
 11
1.000001
 21
0.0
 31
0.0
  0
MTEXT
  5
611
100
AcDbEntity
  8
0_0
 62
     7
100
AcDbMText
 10
636.513775
 20
929.510642
 30
0.0
 40
30.000001
 41
0.0
 71
     1
 72
     2
  1
\fMS UI Gothic|b0|i0|c128;W３００×D４３０×２槽
  7
KANJISTD
210
0.0
220
0.0
230
1.0
 11
1.000001
 21
0.0
 31
0.0
  0
MTEXT
  5
610
100
AcDbEntity
  8
0_0
 62
     7
100
AcDbMText
 10
636.513775
 20
880.934451
 30
0.0
 40
30.000001
 41
0.0
 71
     1
 72
     2
  1
\fMS UI Gothic|b0|i0|c128;１６L×２
  7
KANJISTD
210
0.0
220
0.0
230
1.0
 11
1.000001
 21
0.0
 31
0.0
  0
MTEXT
  5
60F
100
AcDbEntity
  8
0_0
 62
     7
100
AcDbMText
 10
634.857373
 20
782.46811
 30
0.0
 40
30.000001
 41
0.0
 71
     1
 72
     2
  1
\fMS UI Gothic|b0|i0|c128;比例制御方式
  7
KANJISTD
210
0.0
220
0.0
230
1.0
 11
1.000001
 21
0.0
 31
0.0
  0
MTEXT
  5
60E
100
AcDbEntity
  8
0_0
 62
     7
100
AcDbMText
 10
634.857373
 20
678.235368
 30
0.0
 40
30.000001
 41
0.0
 71
     1
 72
     2
  1
\fMS UI Gothic|b0|i0|c128;５５Kg
  7
KANJISTD
210
0.0
220
0.0
230
1.0
 11
1.000001
 21
0.0
 31
0.0
  0
LINE
  5
60D
100
AcDbEntity
  8
0_0
 62
     7
100
AcDbLine
 10
1112.225651
 20
1039.010482
 30
0.0
 11
1112.225651
 21
639.01078
 31
0.0
  0
POLYLINE
  5
607
100
AcDbEntity
  8
0_0
 62
     7
100
AcDb2dPolyline
 66
     1
 10
0.0
 20
0.0
 30
0.0
 70
     1
  0
VERTEX
  5
608
100
AcDbEntity
  8
0_0
 62
     7
100
AcDbVertex
100
AcDb2dVertex
 10
-1525.017509
 20
1334.563501
 30
0.0
  0
VERTEX
  5
609
100
AcDbEntity
  8
0_0
 62
     7
100
AcDbVertex
100
AcDb2dVertex
 10
1665.162099
 20
1334.563501
 30
0.0
  0
VERTEX
  5
60A
100
AcDbEntity
  8
0_0
 62
     7
100
AcDbVertex
100
AcDb2dVertex
 10
1665.162099
 20
-1038.230168
 30
0.0
  0
VERTEX
  5
60B
100
AcDbEntity
  8
0_0
 62
     7
100
AcDbVertex
100
AcDb2dVertex
 10
-1525.017509
 20
-1038.230168
 30
0.0
  0
SEQEND
  5
60C
100
AcDbEntity
  8
0_0
 62
     7
  0
POLYLINE
  5
601
100
AcDbEntity
  8
0_0
 62
     7
100
AcDb2dPolyline
 66
     1
 10
0.0
 20
0.0
 30
0.0
 70
     1
  0
VERTEX
  5
602
100
AcDbEntity
  8
0_0
 62
     7
100
AcDbVertex
100
AcDb2dVertex
 10
78.743686
 20
-891.022271
 30
0.0
  0
VERTEX
  5
603
100
AcDbEntity
  8
0_0
 62
     7
100
AcDbVertex
100
AcDb2dVertex
 10
1652.619195
 20
-891.022271
 30
0.0
  0
VERTEX
  5
604
100
AcDbEntity
  8
0_0
 62
     7
100
AcDbVertex
100
AcDb2dVertex
 10
1652.619195
 20
-1022.386174
 30
0.0
  0
VERTEX
  5
605
100
AcDbEntity
  8
0_0
 62
     7
100
AcDbVertex
100
AcDb2dVertex
 10
78.743686
 20
-1022.386174
 30
0.0
  0
SEQEND
  5
606
100
AcDbEntity
  8
0_0
 62
     7
  0
MTEXT
  5
600
100
AcDbEntity
  8
0_0
 62
     7
100
AcDbMText
 10
126.728526
 20
-927.880363
 30
0.0
 40
50.0
 41
0.0
 71
     1
 72
     2
  1
\fMS UI Gothic|b0|i0|c128;ウォーターフライヤー株式会社
  7
KANJISTD
210
0.0
220
0.0
230
1.0
 11
1.000001
 21
0.0
 31
0.0
  0
LINE
  5
5FF
100
AcDbEntity
  8
0_0
 62
     7
100
AcDbLine
 10
1014.462109
 20
-891.04053
 30
0.0
 11
1014.462109
 21
-1022.366536
 31
0.0
  0
LINE
  5
5FE
100
AcDbEntity
  8
0_0
 62
     7
100
AcDbLine
 10
1094.46205
 20
-891.04053
 30
0.0
 11
1094.46205
 21
-1022.366536
 31
0.0
  0
MTEXT
  5
5FD
100
AcDbEntity
  8
0_0
  6
AI9-LTYPE1
 62
     7
100
AcDbMText
 10
1038.221555
 20
-961.3072
 30
0.0
 40
20.0
 41
0.0
 71
     1
 72
     2
  1
\fMS UI Gothic|b0|i0|c128;式
  7
KANJISTD
210
0.0
220
0.0
230
1.0
 11
1.000001
 21
0.0
 31
0.0
  0
MTEXT
  5
5FC
100
AcDbEntity
  8
0_0
  6
AI9-LTYPE1
 62
     7
100
AcDbMText
 10
1038.221555
 20
-928.82684
 30
0.0
 40
20.0
 41
0.0
 71
     1
 72
     2
  1
\fMS UI Gothic|b0|i0|c128;型
  7
KANJISTD
210
0.0
220
0.0
230
1.0
 11
1.000001
 21
0.0
 31
0.0
  0
MTEXT
  5
5FB
100
AcDbEntity
  8
0_0
  6
AI9-LTYPE1
 62
     7
100
AcDbMText
 10
1142.532845
 20
-931.439146
 30
0.0
 40
50.0
 41
0.0
 71
     1
 72
     2
  1
\fMS UI Gothic|b0|i0|c128;ＳＴ－６０ＷＴ型
  7
KANJISTD
210
0.0
220
0.0
230
1.0
 11
1.000001
 21
0.0
 31
0.0
  0
INSERT
  5
5D9
100
AcDbEntity
  8
0_0
 62
     7
100
AcDbBlockReference
  2
AI9-BLK120
 10
-2.041822
 20
781.053617
 30
0.0
  0
LINE
  5
5D7
100
AcDbEntity
  8
0_0
 62
     7
100
AcDbLine
 10
-755.144777
 20
956.053616
 30
0.0
 11
-415.144858
 21
956.053616
 31
0.0
  0
LINE
  5
5D6
100
AcDbEntity
  8
0_0
 62
     7
100
AcDbLine
 10
-710.144767
 20
1059.053703
 30
0.0
 11
-500.144666
 21
1059.053703
 31
0.0
  0
LINE
  5
5D5
100
AcDbEntity
  8
0_0
 62
     7
100
AcDbLine
 10
-710.144767
 20
1002.053564
 30
0.0
 11
-500.144666
 21
1002.053564
 31
0.0
  0
LINE
  5
5D4
100
AcDbEntity
  8
0_0
 62
     7
100
AcDbLine
 10
-710.144767
 20
1059.053703
 30
0.0
 11
-710.144767
 21
1002.053564
 31
0.0
  0
LINE
  5
5D3
100
AcDbEntity
  8
0_0
 62
     7
100
AcDbLine
 10
-500.144666
 20
1059.053703
 30
0.0
 11
-500.144666
 21
1002.053564
 31
0.0
  0
LINE
  5
5D2
100
AcDbEntity
  8
0_0
 62
     7
100
AcDbLine
 10
-700.144861
 20
1049.053624
 30
0.0
 11
-510.144744
 21
1049.053624
 31
0.0
  0
LINE
  5
5D1
100
AcDbEntity
  8
0_0
 62
     7
100
AcDbLine
 10
-700.144861
 20
1012.053643
 30
0.0
 11
-510.144744
 21
1012.053643
 31
0.0
  0
LINE
  5
5D0
100
AcDbEntity
  8
0_0
 62
     7
100
AcDbLine
 10
-700.144861
 20
1049.053624
 30
0.0
 11
-700.144861
 21
1012.053643
 31
0.0
  0
LINE
  5
5CF
100
AcDbEntity
  8
0_0
 62
     7
100
AcDbLine
 10
-510.144744
 20
1049.053624
 30
0.0
 11
-510.144744
 21
1012.053643
 31
0.0
  0
POLYLINE
  5
5C9
100
AcDbEntity
  8
0_0
 62
     7
100
AcDb2dPolyline
 66
     1
 10
0.0
 20
0.0
 30
0.0
 70
     1
  0
VERTEX
  5
5CA
100
AcDbEntity
  8
0_0
 62
     7
100
AcDbVertex
100
AcDb2dVertex
 10
-468.973614
 20
848.750949
 30
0.0
  0
VERTEX
  5
5CB
100
AcDbEntity
  8
0_0
 62
     7
100
AcDbVertex
100
AcDb2dVertex
 10
-465.567276
 20
848.750949
 30
0.0
  0
VERTEX
  5
5CC
100
AcDbEntity
  8
0_0
 62
     7
100
AcDbVertex
100
AcDb2dVertex
 10
-465.567276
 20
733.029503
 30
0.0
  0
VERTEX
  5
5CD
100
AcDbEntity
  8
0_0
 62
     7
100
AcDbVertex
100
AcDb2dVertex
 10
-468.973614
 20
733.029503
 30
0.0
  0
SEQEND
  5
5CE
100
AcDbEntity
  8
0_0
 62
     7
  0
INSERT
  5
5C0
100
AcDbEntity
  8
0_0
 62
     7
100
AcDbBlockReference
  2
AI9-BLK119
 10
-462.143109
 20
790.753456
 30
0.0
  0
LINE
  5
5BE
100
AcDbEntity
  8
0_0
 62
     7
100
AcDbLine
 10
-467.151331
 20
732.929251
 30
0.0
 11
-467.151331
 21
691.053426
 31
0.0
  0
LINE
  5
5BD
100
AcDbEntity
  8
0_0
 62
     7
100
AcDbLine
 10
-462.183847
 20
732.929251
 30
0.0
 11
-462.183847
 21
691.053426
 31
0.0
  0
CIRCLE
  5
5BC
100
AcDbEntity
  8
0_0
 62
     7
100
AcDbCircle
 10
-770.144722
 20
-703.367231
 30
0.0
 40
19.999985
  0
LINE
  5
5BB
100
AcDbEntity
  8
0_0
 62
     7
100
AcDbLine
 10
1065.351682
 20
-683.367074
 30
0.0
 11
490.352154
 21
-683.367074
 31
0.0
  0
LINE
  5
5BA
100
AcDbEntity
  8
0_0
 62
     7
100
AcDbLine
 10
-745.144698
 20
-683.367074
 30
0.0
 11
-790.144708
 21
-683.367074
 31
0.0
  0
CIRCLE
  5
5B9
100
AcDbEntity
  8
0_0
 62
     7
100
AcDbCircle
 10
1047.352091
 20
-703.367231
 30
0.0
 40
19.999813
  0
CIRCLE
  5
5B8
100
AcDbEntity
  8
0_0
 62
     7
100
AcDbCircle
 10
510.351967
 20
-703.367231
 30
0.0
 40
19.999813
  0
LINE
  5
5B7
100
AcDbEntity
  8
0_0
 62
     7
100
AcDbLine
 10
-820.144771
 20
-723.367388
 30
0.0
 11
-390.144834
 21
-723.367388
 31
0.0
  0
LINE
  5
5B6
100
AcDbEntity
  8
0_0
 62
     7
100
AcDbLine
 10
-790.144708
 20
46.632812
 30
0.0
 11
-790.144708
 21
-683.367074
 31
0.0
  0
LINE
  5
5B5
100
AcDbEntity
  8
0_0
 62
     7
100
AcDbLine
 10
-665.144758
 20
-93.564315
 30
0.0
 11
-545.144847
 21
-93.564315
 31
0.0
  0
LINE
  5
5B4
100
AcDbEntity
  8
0_0
 62
     7
100
AcDbLine
 10
-665.144758
 20
-83.564236
 30
0.0
 11
-545.144847
 21
-83.564236
 31
0.0
  0
CIRCLE
  5
5B3
100
AcDbEntity
  8
0_0
 62
     7
100
AcDbCircle
 10
-605.144716
 20
-122.19547
 30
0.0
 40
15.000032
  0
SPLINE
  5
5B2
100
AcDbEntity
  8
0_0
 62
     7
100
AcDbSpline
210
0.0
220
0.0
230
1.0
 70
     8
 71
     3
 72
    11
 73
     7
 74
     0
 42
0.00000001
 43
0.00000001
 40
0.0
 40
0.0
 40
0.0
 40
0.0
 40
1.0
 40
1.0
 40
1.0
 40
2.0
 40
2.0
 40
2.0
 40
2.0
 10
-665.14475775824644
 20
-83.5642361111111
 30
0.0
 10
-667.90617404513887
 20
-83.5642361111111
 30
0.0
 10
-670.14462483723958
 20
-85.802859157986106
 30
0.0
 10
-670.14462483723958
 20
-88.564103190104163
 30
0.0
 10
-670.14462483723958
 20
-91.325691731770831
 30
0.0
 10
-667.90617404513887
 20
-93.564314778645823
 30
0.0
 10
-665.14475775824644
 20
-93.564314778645823
 30
0.0
  0
SPLINE
  5
5B1
100
AcDbEntity
  8
0_0
 62
     7
100
AcDbSpline
210
0.0
220
0.0
230
1.0
 70
     8
 71
     3
 72
    11
 73
     7
 74
     0
 42
0.00000001
 43
0.00000001
 40
0.0
 40
0.0
 40
0.0
 40
0.0
 40
1.0
 40
1.0
 40
1.0
 40
2.0
 40
2.0
 40
2.0
 40
2.0
 10
-545.14484727647562
 20
-93.564314778645823
 30
0.0
 10
-542.38325873480903
 20
-93.564314778645823
 30
0.0
 10
-540.14463568793394
 20
-91.325691731770831
 30
0.0
 10
-540.14463568793394
 20
-88.564103190104163
 30
0.0
 10
-540.14463568793394
 20
-85.802859157986106
 30
0.0
 10
-542.38325873480903
 20
-83.5642361111111
 30
0.0
 10
-545.14484727647562
 20
-83.5642361111111
 30
0.0
  0
INSERT
  5
59E
100
AcDbEntity
  8
0_0
  6
AI9-LTYPE1
 62
     7
100
AcDbBlockReference
  2
AI9-BLK117
 10
-637.460918
 20
-282.352791
 30
0.0
  0
INSERT
  5
57B
100
AcDbEntity
  8
0_0
  6
AI9-LTYPE1
 62
     7
100
AcDbBlockReference
  2
AI9-BLK113
 10
-9.258177
 20
-323.36717
 30
0.0
  0
INSERT
  5
558
100
AcDbEntity
  8
0_0
  6
AI9-LTYPE2
 62
     7
100
AcDbBlockReference
  2
AI9-BLK109
 10
-8.330327
 20
126.633011
 30
0.0
  0
LINE
  5
556
100
AcDbEntity
  8
0_0
  6
AI9-LTYPE2
 62
     7
100
AcDbLine
 10
685.352138
 20
-33.367128
 30
0.0
 11
685.352138
 21
-128.367358
 31
0.0
  0
LINE
  5
555
100
AcDbEntity
  8
0_0
  6
AI9-LTYPE2
 62
     7
100
AcDbLine
 10
980.352219
 20
76.632704
 30
0.0
 11
950.351638
 21
51.63268
 31
0.0
  0
LINE
  5
554
100
AcDbEntity
  8
0_0
  6
AI9-LTYPE2
 62
     7
100
AcDbLine
 10
950.351638
 20
51.63268
 30
0.0
 11
950.351638
 21
-467.678602
 31
0.0
  0
LINE
  5
553
100
AcDbEntity
  8
0_0
  6
AI9-LTYPE2
 62
     7
100
AcDbLine
 10
685.352138
 20
-43.367206
 30
0.0
 11
950.351638
 21
-43.367206
 31
0.0
  0
LINE
  5
552
100
AcDbEntity
  8
0_0
  6
AI9-LTYPE2
 62
     7
100
AcDbLine
 10
685.352138
 20
-113.367068
 30
0.0
 11
950.351638
 21
-113.367068
 31
0.0
  0
LINE
  5
551
100
AcDbEntity
  8
0_0
  6
AI9-LTYPE2
 62
     7
100
AcDbLine
 10
725.351763
 20
-173.367196
 30
0.0
 11
950.351638
 21
-173.367196
 31
0.0
  0
LINE
  5
550
100
AcDbEntity
  8
0_0
  6
AI9-LTYPE2
 62
     7
100
AcDbLine
 10
725.351763
 20
-233.367323
 30
0.0
 11
950.351638
 21
-233.367323
 31
0.0
  0
LINE
  5
54F
100
AcDbEntity
  8
0_0
  6
AI9-LTYPE2
 62
     7
100
AcDbLine
 10
685.352138
 20
-128.367358
 30
0.0
 11
725.351763
 21
-148.367171
 31
0.0
  0
LINE
  5
54E
100
AcDbEntity
  8
0_0
  6
AI9-LTYPE2
 62
     7
100
AcDbLine
 10
725.351763
 20
-148.367171
 30
0.0
 11
725.351763
 21
-483.367223
 31
0.0
  0
LINE
  5
54D
100
AcDbEntity
  8
0_0
 62
     7
100
AcDbLine
 10
-740.144831
 20
-483.367223
 30
0.0
 11
-455.144828
 21
-483.367223
 31
0.0
  0
INSERT
  5
52B
100
AcDbEntity
  8
0_0
  6
AI9-LTYPE1
 62
     7
100
AcDbBlockReference
  2
AI9-BLK105
 10
-30.157505
 20
1031.053689
 30
0.0
  0
INSERT
  5
508
100
AcDbEntity
  8
0_0
  6
AI9-LTYPE1
 62
     7
100
AcDbBlockReference
  2
AI9-BLK101
 10
-30.768148
 20
736.053608
 30
0.0
  0
INSERT
  5
4E5
100
AcDbEntity
  8
0_0
 62
     7
100
AcDbBlockReference
  2
AI9-BLK97
 10
-468.74107
 20
1030.553634
 30
0.0
  0
LINE
  5
4E3
100
AcDbEntity
  8
0_0
 62
     7
100
AcDbLine
 10
-710.144767
 20
236.632585
 30
0.0
 11
-500.144666
 21
236.632585
 31
0.0
  0
LINE
  5
4E2
100
AcDbEntity
  8
0_0
 62
     7
100
AcDbLine
 10
-500.144666
 20
236.632585
 30
0.0
 11
-500.144666
 21
176.632802
 31
0.0
  0
LINE
  5
4E1
100
AcDbEntity
  8
0_0
 62
     7
100
AcDbLine
 10
-710.144767
 20
236.632585
 30
0.0
 11
-710.144767
 21
176.632802
 31
0.0
  0
LINE
  5
4E0
100
AcDbEntity
  8
0_0
  6
AI9-LTYPE2
 62
     7
100
AcDbLine
 10
725.351763
 20
-483.367223
 30
0.0
 11
950.351638
 21
-467.678602
 31
0.0
  0
LINE
  5
4DF
100
AcDbEntity
  8
0_0
 62
     7
100
AcDbLine
 10
-740.144831
 20
-258.367348
 30
0.0
 11
-740.144831
 21
-305.339157
 31
0.0
  0
LINE
  5
4DE
100
AcDbEntity
  8
0_0
 62
     7
100
AcDbLine
 10
995.352165
 20
236.632585
 30
0.0
 11
1052.351959
 21
236.632585
 31
0.0
  0
LINE
  5
4DD
100
AcDbEntity
  8
0_0
 62
     7
100
AcDbLine
 10
995.352165
 20
236.632585
 30
0.0
 11
995.352165
 21
176.632802
 31
0.0
  0
LINE
  5
4DC
100
AcDbEntity
  8
0_0
 62
     7
100
AcDbLine
 10
1052.351959
 20
236.632585
 30
0.0
 11
1052.351959
 21
176.632802
 31
0.0
  0
LINE
  5
4DB
100
AcDbEntity
  8
0_0
  6
AI9-LTYPE2
 62
     7
100
AcDbLine
 10
950.351638
 20
-28.367261
 30
0.0
 11
1052.351959
 21
-28.367261
 31
0.0
  0
LINE
  5
4DA
100
AcDbEntity
  8
0_0
  6
AI9-LTYPE2
 62
     7
100
AcDbLine
 10
950.351638
 20
-248.367269
 30
0.0
 11
1052.351959
 21
-205.011776
 31
0.0
  0
LINE
  5
4D9
100
AcDbEntity
  8
0_0
  6
AI9-LTYPE2
 62
     7
100
AcDbLine
 10
1052.351959
 20
-28.367261
 30
0.0
 11
1052.351959
 21
-205.011776
 31
0.0
  0
LINE
  5
4D8
100
AcDbEntity
  8
0_0
  6
AI9-LTYPE2
 62
     7
100
AcDbLine
 10
998.352154
 20
176.632802
 30
0.0
 11
998.352154
 21
-28.367261
 31
0.0
  0
LINE
  5
4D7
100
AcDbEntity
  8
0_0
  6
AI9-LTYPE2
 62
     7
100
AcDbLine
 10
1049.351969
 20
173.632812
 30
0.0
 11
1049.351969
 21
-28.367261
 31
0.0
  0
LINE
  5
4D6
100
AcDbEntity
  8
0_0
  6
AI9-LTYPE2
 62
     7
100
AcDbLine
 10
1026.389719
 20
97.840712
 30
0.0
 11
1026.389719
 21
-109.708721
 31
0.0
  0
LINE
  5
4D5
100
AcDbEntity
  8
0_0
  6
AI9-LTYPE2
 62
     7
100
AcDbLine
 10
1026.389719
 20
-109.708721
 30
0.0
 11
950.351638
 21
-145.982476
 31
0.0
  0
POLYLINE
  5
4CF
100
AcDbEntity
  8
0_0
  6
AI9-LTYPE2
 62
     7
100
AcDb2dPolyline
 66
     1
 10
0.0
 20
0.0
 30
0.0
 70
     1
  0
VERTEX
  5
4D0
100
AcDbEntity
  8
0_0
  6
AI9-LTYPE2
 62
     7
100
AcDbVertex
100
AcDb2dVertex
 10
562.712939
 20
-48.474905
 30
0.0
  0
VERTEX
  5
4D1
100
AcDbEntity
  8
0_0
  6
AI9-LTYPE2
 62
     7
100
AcDbVertex
100
AcDb2dVertex
 10
681.64177
 20
-35.511011
 30
0.0
  0
VERTEX
  5
4D2
100
AcDbEntity
  8
0_0
  6
AI9-LTYPE2
 62
     7
100
AcDbVertex
100
AcDb2dVertex
 10
681.64177
 20
-169.471826
 30
0.0
  0
VERTEX
  5
4D3
100
AcDbEntity
  8
0_0
  6
AI9-LTYPE2
 62
     7
100
AcDbVertex
100
AcDb2dVertex
 10
562.712939
 20
-169.471826
 30
0.0
  0
SEQEND
  5
4D4
100
AcDbEntity
  8
0_0
  6
AI9-LTYPE2
 62
     7
  0
POLYLINE
  5
4C9
100
AcDbEntity
  8
0_0
  6
AI9-LTYPE2
 62
     7
100
AcDb2dPolyline
 66
     1
 10
0.0
 20
0.0
 30
0.0
 70
     1
  0
VERTEX
  5
4CA
100
AcDbEntity
  8
0_0
  6
AI9-LTYPE2
 62
     7
100
AcDbVertex
100
AcDb2dVertex
 10
590.822852
 20
-147.239247
 30
0.0
  0
VERTEX
  5
4CB
100
AcDbEntity
  8
0_0
  6
AI9-LTYPE2
 62
     7
100
AcDbVertex
100
AcDb2dVertex
 10
662.42985
 20
-147.239247
 30
0.0
  0
VERTEX
  5
4CC
100
AcDbEntity
  8
0_0
  6
AI9-LTYPE2
 62
     7
100
AcDbVertex
100
AcDb2dVertex
 10
662.42985
 20
-177.244651
 30
0.0
  0
VERTEX
  5
4CD
100
AcDbEntity
  8
0_0
  6
AI9-LTYPE2
 62
     7
100
AcDbVertex
100
AcDb2dVertex
 10
590.822852
 20
-177.244651
 30
0.0
  0
SEQEND
  5
4CE
100
AcDbEntity
  8
0_0
  6
AI9-LTYPE2
 62
     7
  0
POLYLINE
  5
4C3
100
AcDbEntity
  8
0_0
 62
     7
100
AcDb2dPolyline
 66
     1
 10
0.0
 20
0.0
 30
0.0
 70
     1
  0
VERTEX
  5
4C4
100
AcDbEntity
  8
0_0
 62
     7
100
AcDbVertex
100
AcDb2dVertex
 10
-670.481038
 20
-304.94745
 30
0.0
  0
VERTEX
  5
4C5
100
AcDbEntity
  8
0_0
 62
     7
100
AcDbVertex
100
AcDb2dVertex
 10
-626.326455
 20
-304.94745
 30
0.0
  0
VERTEX
  5
4C6
100
AcDbEntity
  8
0_0
 62
     7
100
AcDbVertex
100
AcDb2dVertex
 10
-626.326455
 20
-330.565525
 30
0.0
  0
VERTEX
  5
4C7
100
AcDbEntity
  8
0_0
 62
     7
100
AcDbVertex
100
AcDb2dVertex
 10
-670.481038
 20
-330.565525
 30
0.0
  0
SEQEND
  5
4C8
100
AcDbEntity
  8
0_0
 62
     7
  0
CIRCLE
  5
4C2
100
AcDbEntity
  8
0_0
 62
     7
100
AcDbCircle
 10
-648.526478
 20
-317.756315
 30
0.0
 40
11.385868
  0
POLYLINE
  5
4BC
100
AcDbEntity
  8
0_0
 62
     7
100
AcDb2dPolyline
 66
     1
 10
0.0
 20
0.0
 30
0.0
 70
     1
  0
VERTEX
  5
4BD
100
AcDbEntity
  8
0_0
 62
     7
100
AcDbVertex
100
AcDb2dVertex
 10
-495.276057
 20
-364.722957
 30
0.0
  0
VERTEX
  5
4BE
100
AcDbEntity
  8
0_0
 62
     7
100
AcDbVertex
100
AcDb2dVertex
 10
-467.205419
 20
-364.722957
 30
0.0
  0
VERTEX
  5
4BF
100
AcDbEntity
  8
0_0
 62
     7
100
AcDbVertex
100
AcDb2dVertex
 10
-467.205419
 20
-414.149742
 30
0.0
  0
VERTEX
  5
4C0
100
AcDbEntity
  8
0_0
 62
     7
100
AcDbVertex
100
AcDb2dVertex
 10
-495.276057
 20
-414.149742
 30
0.0
  0
SEQEND
  5
4C1
100
AcDbEntity
  8
0_0
 62
     7
  0
CIRCLE
  5
4BB
100
AcDbEntity
  8
0_0
 62
     7
100
AcDbCircle
 10
-552.301344
 20
-315.948674
 30
0.0
 40
24.194906
  0
CIRCLE
  5
4BA
100
AcDbEntity
  8
0_0
 62
     7
100
AcDbCircle
 10
-552.301344
 20
-315.948674
 30
0.0
 40
14.194827
  0
CIRCLE
  5
4B9
100
AcDbEntity
  8
0_0
 62
     7
100
AcDbCircle
 10
-552.301344
 20
-315.948674
 30
0.0
 40
22.195028
  0
CIRCLE
  5
4B8
100
AcDbEntity
  8
0_0
 62
     7
100
AcDbCircle
 10
-552.30143
 20
-315.948674
 30
0.0
 40
10.734487
  0
LINE
  5
4B7
100
AcDbEntity
  8
0_0
 62
     7
100
AcDbLine
 10
-577.146339
 20
-296.503521
 30
0.0
 11
-577.146339
 21
-337.374067
 31
0.0
  0
LINE
  5
4B6
100
AcDbEntity
  8
0_0
 62
     7
100
AcDbLine
 10
-527.14629
 20
-296.503521
 30
0.0
 11
-527.14629
 21
-337.374067
 31
0.0
  0
LINE
  5
4B5
100
AcDbEntity
  8
0_0
 62
     7
100
AcDbLine
 10
-577.146339
 20
-296.503521
 30
0.0
 11
-566.69857
 21
-296.503521
 31
0.0
  0
LINE
  5
4B4
100
AcDbEntity
  8
0_0
 62
     7
100
AcDbLine
 10
-577.146339
 20
-337.374067
 30
0.0
 11
-563.541657
 21
-337.374067
 31
0.0
  0
LINE
  5
4B3
100
AcDbEntity
  8
0_0
 62
     7
100
AcDbLine
 10
-537.90429
 20
-296.503521
 30
0.0
 11
-527.14629
 21
-296.503521
 31
0.0
  0
LINE
  5
4B2
100
AcDbEntity
  8
0_0
 62
     7
100
AcDbLine
 10
-541.061031
 20
-337.374067
 30
0.0
 11
-527.14629
 21
-337.374067
 31
0.0
  0
LINE
  5
4B1
100
AcDbEntity
  8
0_0
 62
     7
100
AcDbLine
 10
-670.481038
 20
-309.644149
 30
0.0
 11
-656.515827
 21
-309.644149
 31
0.0
  0
LINE
  5
4B0
100
AcDbEntity
  8
0_0
 62
     7
100
AcDbLine
 10
-670.481038
 20
-325.850911
 30
0.0
 11
-656.533914
 21
-325.850911
 31
0.0
  0
LINE
  5
4AF
100
AcDbEntity
  8
0_0
 62
     7
100
AcDbLine
 10
-743.623172
 20
-307.644271
 30
0.0
 11
-723.679342
 21
-307.644271
 31
0.0
  0
LINE
  5
4AE
100
AcDbEntity
  8
0_0
 62
     7
100
AcDbLine
 10
-743.623172
 20
-327.850789
 30
0.0
 11
-723.679342
 21
-327.850789
 31
0.0
  0
POLYLINE
  5
4A8
100
AcDbEntity
  8
0_0
 62
     7
100
AcDb2dPolyline
 66
     1
 10
0.0
 20
0.0
 30
0.0
 70
     1
  0
VERTEX
  5
4A9
100
AcDbEntity
  8
0_0
 62
     7
100
AcDbVertex
100
AcDb2dVertex
 10
-651.738513
 20
-307.322499
 30
0.0
  0
VERTEX
  5
4AA
100
AcDbEntity
  8
0_0
 62
     7
100
AcDbVertex
100
AcDb2dVertex
 10
-645.498412
 20
-307.322499
 30
0.0
  0
VERTEX
  5
4AB
100
AcDbEntity
  8
0_0
 62
     7
100
AcDbVertex
100
AcDb2dVertex
 10
-645.498412
 20
-327.947252
 30
0.0
  0
VERTEX
  5
4AC
100
AcDbEntity
  8
0_0
 62
     7
100
AcDbVertex
100
AcDb2dVertex
 10
-651.738513
 20
-327.947252
 30
0.0
  0
SEQEND
  5
4AD
100
AcDbEntity
  8
0_0
 62
     7
  0
LINE
  5
4A7
100
AcDbEntity
  8
0_0
 62
     7
100
AcDbLine
 10
-640.53713
 20
-309.644149
 30
0.0
 11
-626.326455
 21
-309.644149
 31
0.0
  0
LINE
  5
4A6
100
AcDbEntity
  8
0_0
 62
     7
100
AcDbLine
 10
-640.519215
 20
-325.850911
 30
0.0
 11
-626.326455
 21
-325.850911
 31
0.0
  0
LINE
  5
4A5
100
AcDbEntity
  8
0_0
 62
     7
100
AcDbLine
 10
-653.793513
 20
-327.850789
 30
0.0
 11
-643.259444
 21
-327.850789
 31
0.0
  0
LINE
  5
4A4
100
AcDbEntity
  8
0_0
 62
     7
100
AcDbLine
 10
-682.67926
 20
-307.644271
 30
0.0
 11
-670.481038
 21
-307.644271
 31
0.0
  0
LINE
  5
4A3
100
AcDbEntity
  8
0_0
 62
     7
100
AcDbLine
 10
-682.67926
 20
-327.850789
 30
0.0
 11
-670.481038
 21
-327.850789
 31
0.0
  0
LINE
  5
4A2
100
AcDbEntity
  8
0_0
 62
     7
100
AcDbLine
 10
-740.144831
 20
-330.339182
 30
0.0
 11
-740.144831
 21
-483.367223
 31
0.0
  0
LINE
  5
4A1
100
AcDbEntity
  8
0_0
 62
     7
100
AcDbLine
 10
-470.144774
 20
-355.0729
 30
0.0
 11
-470.144774
 21
-364.722957
 31
0.0
  0
LINE
  5
4A0
100
AcDbEntity
  8
0_0
 62
     7
100
AcDbLine
 10
-490.144759
 20
-361.520741
 30
0.0
 11
-490.144759
 21
-364.722957
 31
0.0
  0
SPLINE
  5
49F
100
AcDbEntity
  8
0_0
 62
     7
100
AcDbSpline
210
0.0
220
0.0
230
1.0
 70
     8
 71
     3
 72
     8
 73
     4
 74
     0
 42
0.00000001
 43
0.00000001
 40
0.0
 40
0.0
 40
0.0
 40
0.0
 40
1.0
 40
1.0
 40
1.0
 40
1.0
 10
-490.14475911458328
 20
-361.52074110243052
 30
0.0
 10
-489.76838243272567
 20
-359.39339463975693
 30
0.0
 10
-489.63040635850689
 20
-357.23056369357636
 30
0.0
 10
-489.73358696831593
 20
-355.07290039062497
 30
0.0
  0
LINE
  5
49E
100
AcDbEntity
  8
0_0
 62
     7
100
AcDbLine
 10
-516.098386
 20
-305.644048
 30
0.0
 11
-516.098386
 21
-329.537164
 31
0.0
  0
LINE
  5
49D
100
AcDbEntity
  8
0_0
 62
     7
100
AcDbLine
 10
-491.735876
 20
-355.0729
 30
0.0
 11
-468.144724
 21
-355.0729
 31
0.0
  0
SPLINE
  5
49C
100
AcDbEntity
  8
0_0
 62
     7
100
AcDbSpline
210
0.0
220
0.0
230
1.0
 70
     8
 71
     3
 72
     8
 73
     4
 74
     0
 42
0.00000001
 43
0.00000001
 40
0.0
 40
0.0
 40
0.0
 40
0.0
 40
1.0
 40
1.0
 40
1.0
 40
1.0
 10
-468.1776245117187
 20
-340.95352105034721
 30
0.0
 10
-471.46889648437497
 20
-323.00939670138888
 30
0.0
 10
-485.5098999023437
 20
-308.96856553819441
 30
0.0
 10
-503.45402425130203
 20
-305.67712131076388
 30
0.0
  0
SPLINE
  5
49B
100
AcDbEntity
  8
0_0
 62
     7
100
AcDbSpline
210
0.0
220
0.0
230
1.0
 70
     8
 71
     3
 72
     8
 73
     4
 74
     0
 42
0.00000001
 43
0.00000001
 40
0.0
 40
0.0
 40
0.0
 40
0.0
 40
1.0
 40
1.0
 40
1.0
 40
1.0
 10
-491.73587646484373
 20
-355.07290039062497
 30
0.0
 10
-492.42179497612841
 20
-341.70627441406248
 30
0.0
 10
-502.77878553602426
 20
-330.85043402777774
 30
0.0
 10
-516.09838595920132
 20
-329.53716362847217
 30
0.0
  0
LINE
  5
49A
100
AcDbEntity
  8
0_0
 62
     7
100
AcDbLine
 10
-468.144724
 20
-341.314223
 30
0.0
 11
-468.144724
 21
-355.0729
 31
0.0
  0
LINE
  5
499
100
AcDbEntity
  8
0_0
 62
     7
100
AcDbLine
 10
-516.098386
 20
-305.644048
 30
0.0
 11
-503.814726
 21
-305.644048
 31
0.0
  0
SPLINE
  5
498
100
AcDbEntity
  8
0_0
 62
     7
100
AcDbSpline
210
0.0
220
0.0
230
1.0
 70
     8
 71
     3
 72
     8
 73
     4
 74
     0
 42
0.00000001
 43
0.00000001
 40
0.0
 40
0.0
 40
0.0
 40
0.0
 40
1.0
 40
1.0
 40
1.0
 40
1.0
 10
-516.09838595920132
 20
-327.52798394097221
 30
0.0
 10
-518.6734225802951
 20
-327.29165039062497
 30
0.0
 10
-521.2684407552083
 20
-327.40017089843747
 30
0.0
 10
-523.81488308376731
 20
-327.85078938802081
 30
0.0
  0
CIRCLE
  5
497
100
AcDbEntity
  8
0_0
 62
     7
100
AcDbCircle
 10
-480.785124
 20
-386.878711
 30
0.0
 40
6.589606
  0
CIRCLE
  5
496
100
AcDbEntity
  8
0_0
 62
     7
100
AcDbCircle
 10
-480.785124
 20
-386.878711
 30
0.0
 40
9.589596
  0
POLYLINE
  5
48E
100
AcDbEntity
  8
0_0
 62
     7
100
AcDb2dPolyline
 66
     1
 10
0.0
 20
0.0
 30
0.0
  0
VERTEX
  5
48F
100
AcDbEntity
  8
0_0
 62
     7
100
AcDbVertex
100
AcDb2dVertex
 10
-539.618914
 20
-277.494173
 30
0.0
  0
VERTEX
  5
490
100
AcDbEntity
  8
0_0
 62
     7
100
AcDbVertex
100
AcDb2dVertex
 10
-539.618914
 20
-291.014106
 30
0.0
  0
VERTEX
  5
491
100
AcDbEntity
  8
0_0
 62
     7
100
AcDbVertex
100
AcDb2dVertex
 10
-551.68071
 20
-291.014106
 30
0.0
  0
VERTEX
  5
492
100
AcDbEntity
  8
0_0
 62
     7
100
AcDbVertex
100
AcDb2dVertex
 10
-551.68071
 20
-263.465744
 30
0.0
  0
VERTEX
  5
493
100
AcDbEntity
  8
0_0
 62
     7
100
AcDbVertex
100
AcDb2dVertex
 10
-539.618914
 20
-263.465744
 30
0.0
  0
VERTEX
  5
494
100
AcDbEntity
  8
0_0
 62
     7
100
AcDbVertex
100
AcDb2dVertex
 10
-539.618914
 20
-272.493962
 30
0.0
  0
SEQEND
  5
495
100
AcDbEntity
  8
0_0
 62
     7
  0
LINE
  5
48D
100
AcDbEntity
  8
0_0
 62
     7
100
AcDbLine
 10
-546.396967
 20
-272.493962
 30
0.0
 11
-518.105671
 21
-272.493962
 31
0.0
  0
LINE
  5
48C
100
AcDbEntity
  8
0_0
 62
     7
100
AcDbLine
 10
-546.396967
 20
-277.494173
 30
0.0
 11
-518.105671
 21
-277.494173
 31
0.0
  0
LINE
  5
48B
100
AcDbEntity
  8
0_0
 62
     7
100
AcDbLine
 10
-546.396967
 20
-272.493962
 30
0.0
 11
-546.396967
 21
-277.494173
 31
0.0
  0
SPLINE
  5
48A
100
AcDbEntity
  8
0_0
 62
     7
100
AcDbSpline
210
0.0
220
0.0
230
1.0
 70
     8
 71
     3
 72
    11
 73
     7
 74
     0
 42
0.00000001
 43
0.00000001
 40
0.0
 40
0.0
 40
0.0
 40
0.0
 40
1.0
 40
1.0
 40
1.0
 40
2.0
 40
2.0
 40
2.0
 40
2.0
 10
-518.10567084418403
 20
-277.49417317708333
 30
0.0
 10
-516.72487657335068
 20
-277.49417317708333
 30
0.0
 10
-515.60556504991314
 20
-276.37486165364578
 30
0.0
 10
-515.60556504991314
 20
-274.99406738281249
 30
0.0
 10
-515.60556504991314
 20
-273.61327311197914
 30
0.0
 10
-516.72487657335068
 20
-272.49396158854165
 30
0.0
 10
-518.10567084418403
 20
-272.49396158854165
 30
0.0
  0
POLYLINE
  5
484
100
AcDbEntity
  8
0_0
 62
     7
100
AcDb2dPolyline
 66
     1
 10
0.0
 20
0.0
 30
0.0
 70
     1
  0
VERTEX
  5
485
100
AcDbEntity
  8
0_0
 62
     7
100
AcDbVertex
100
AcDb2dVertex
 10
-550.386905
 20
-260.828868
 30
0.0
  0
VERTEX
  5
486
100
AcDbEntity
  8
0_0
 62
     7
100
AcDbVertex
100
AcDb2dVertex
 10
-540.565626
 20
-260.828868
 30
0.0
  0
VERTEX
  5
487
100
AcDbEntity
  8
0_0
 62
     7
100
AcDbVertex
100
AcDb2dVertex
 10
-540.565626
 20
-263.183936
 30
0.0
  0
VERTEX
  5
488
100
AcDbEntity
  8
0_0
 62
     7
100
AcDbVertex
100
AcDb2dVertex
 10
-550.386905
 20
-263.183936
 30
0.0
  0
SEQEND
  5
489
100
AcDbEntity
  8
0_0
 62
     7
  0
LINE
  5
483
100
AcDbEntity
  8
0_0
 62
     7
100
AcDbLine
 10
-547.047574
 20
-260.828868
 30
0.0
 11
-547.047574
 21
-263.183936
 31
0.0
  0
LINE
  5
482
100
AcDbEntity
  8
0_0
 62
     7
100
AcDbLine
 10
-543.315502
 20
-261.024894
 30
0.0
 11
-543.315502
 21
-263.380306
 31
0.0
  0
LINE
  5
481
100
AcDbEntity
  8
0_0
 62
     7
100
AcDbLine
 10
-548.815597
 20
-258.669827
 30
0.0
 11
-548.815597
 21
-260.828868
 31
0.0
  0
LINE
  5
480
100
AcDbEntity
  8
0_0
 62
     7
100
AcDbLine
 10
-542.333477
 20
-258.669827
 30
0.0
 11
-542.333477
 21
-260.632498
 31
0.0
  0
MTEXT
  5
47F
100
AcDbEntity
  8
0_0
 62
     7
100
AcDbMText
 10
630.535156
 20
831.945883
 30
0.0
 40
30.000001
 41
0.0
 71
     1
 72
     2
  1
\fMS UI Gothic|b0|i0|c128;１６０～２２０
  7
KANJISTD
210
0.0
220
0.0
230
1.0
 11
1.000001
 21
0.0
 31
0.0
  0
INSERT
  5
475
100
AcDbEntity
  8
0_0
 62
     7
100
AcDbBlockReference
  2
AI9-BLK96
 10
-129.196937
 20
-307.690952
 30
0.0
  0
MTEXT
  5
473
100
AcDbEntity
  8
0_0
 62
     7
100
AcDbMText
 10
-73.710919
 20
-273.004682
 30
0.0
 40
20.0
 41
0.0
 71
     1
 72
     2
  1
\fMS UI Gothic|b0|i0|c128;サーモスタット
  7
KANJISTD
210
0.0
220
0.0
230
1.0
 11
1.000001
 21
0.0
 31
0.0
  0
INSERT
  5
469
100
AcDbEntity
  8
0_0
 62
     7
100
AcDbBlockReference
  2
AI9-BLK95
 10
-107.45494
 20
-445.303052
 30
0.0
  0
MTEXT
  5
467
100
AcDbEntity
  8
0_0
 62
     7
100
AcDbMText
 10
-73.710919
 20
-441.335493
 30
0.0
 40
20.0
 41
0.0
 71
     1
 72
     2
  1
\fMS UI Gothic|b0|i0|c128;接続口径１５A
  7
KANJISTD
210
0.0
220
0.0
230
1.0
 11
1.000001
 21
0.0
 31
0.0
  0
INSERT
  5
45D
100
AcDbEntity
  8
0_0
 62
     7
100
AcDbBlockReference
  2
AI9-BLK94
 10
-107.745792
 20
-399.243848
 30
0.0
  0
MTEXT
  5
45B
100
AcDbEntity
  8
0_0
 62
     7
100
AcDbMText
 10
-73.710919
 20
-368.445541
 30
0.0
 40
20.0
 41
0.0
 71
     1
 72
     2
  1
\fMS UI Gothic|b0|i0|c128;過熱防止装置
  7
KANJISTD
210
0.0
220
0.0
230
1.0
 11
1.000001
 21
0.0
 31
0.0
  0
INSERT
  5
451
100
AcDbEntity
  8
0_0
 62
     7
100
AcDbBlockReference
  2
AI9-BLK93
 10
-240.980381
 20
-268.841127
 30
0.0
  0
MTEXT
  5
44F
100
AcDbEntity
  8
0_0
 62
     7
100
AcDbMText
 10
-216.394716
 20
-223.754286
 30
0.0
 40
20.0
 41
0.0
 71
     1
 72
     2
  1
\fMS UI Gothic|b0|i0|c128;排油バルブ　３２A
  7
KANJISTD
210
0.0
220
0.0
230
1.0
 11
1.000001
 21
0.0
 31
0.0
  0
INSERT
  5
445
100
AcDbEntity
  8
0_0
 62
     7
100
AcDbBlockReference
  2
AI9-BLK92
 10
-748.996229
 20
-362.458496
 30
0.0
  0
MTEXT
  5
443
100
AcDbEntity
  8
0_0
 62
     7
100
AcDbMText
 10
-896.368026
 20
-360.456364
 30
0.0
 40
20.0
 41
0.0
 71
     1
 72
     2
  1
\fMS UI Gothic|b0|i0|c128;ガスコック
  7
KANJISTD
210
0.0
220
0.0
230
1.0
 11
1.000001
 21
0.0
 31
0.0
  0
MTEXT
  5
442
100
AcDbEntity
  8
0_0
 62
     7
100
AcDbMText
 10
790.646658
 20
-68.589253
 30
0.0
 40
20.0
 41
0.0
 71
     1
 72
     2
  1
\fMS UI Gothic|b0|i0|c128;熱管
  7
KANJISTD
210
0.0
220
0.0
230
1.0
 11
1.000001
 21
0.0
 31
0.0
  0
INSERT
  5
438
100
AcDbEntity
  8
0_0
 62
     7
100
AcDbBlockReference
  2
AI9-BLK91
 10
568.648839
 20
-180.428608
 30
0.0
  0
MTEXT
  5
436
100
AcDbEntity
  8
0_0
 62
     7
100
AcDbMText
 10
452.248709
 20
-178.832997
 30
0.0
 40
20.0
 41
0.0
 71
     1
 72
     2
  1
\fMS UI Gothic|b0|i0|c128;バーナー
  7
KANJISTD
210
0.0
220
0.0
230
1.0
 11
1.000001
 21
0.0
 31
0.0
  0
INSERT
  5
42C
100
AcDbEntity
  8
0_0
  6
AI9-LTYPE1
 62
     7
100
AcDbBlockReference
  2
AI9-BLK90
 10
-16.308393
 20
713.033135
 30
0.0
  0
MTEXT
  5
42A
100
AcDbEntity
  8
0_0
  6
AI9-LTYPE1
 62
     7
100
AcDbMText
 10
69.521338
 20
708.783108
 30
0.0
 40
20.0
 41
0.0
 71
     1
 72
     2
  1
\fMS UI Gothic|b0|i0|c128;過熱防止　センサー
  7
KANJISTD
210
0.0
220
0.0
230
1.0
 11
1.000001
 21
0.0
 31
0.0
  0
MTEXT
  5
429
100
AcDbEntity
  8
0_0
  6
AI9-LTYPE1
 62
     7
100
AcDbMText
 10
69.521338
 20
741.263124
 30
0.0
 40
20.0
 41
0.0
 71
     1
 72
     2
  1
\fMS UI Gothic|b0|i0|c128;サーモスタット
  7
KANJISTD
210
0.0
220
0.0
230
1.0
 11
1.000001
 21
0.0
 31
0.0
  0
INSERT
  5
407
100
AcDbEntity
  8
0_0
  6
AI9-LTYPE1
 62
     7
100
AcDbBlockReference
  2
AI9-BLK86
 10
775.351812
 20
206.396618
 30
0.0
  0
INSERT
  5
3E4
100
AcDbEntity
  8
0_0
  6
AI9-LTYPE1
 62
     7
100
AcDbBlockReference
  2
AI9-BLK82
 10
805.834017
 20
16.632921
 30
0.0
  0
INSERT
  5
3C1
100
AcDbEntity
  8
0_0
  6
AI9-LTYPE2
 62
     7
100
AcDbBlockReference
  2
AI9-BLK78
 10
1025.351712
 20
239.690451
 30
0.0
  0
MTEXT
  5
3BF
100
AcDbEntity
  8
0_0
  6
AI9-LTYPE2
 62
     7
100
AcDbMText
 10
422.594705
 20
732.511125
 30
0.0
 40
30.000001
 41
0.0
 71
     1
 72
     2
  1
\fMS UI Gothic|b0|i0|c128;熱　　　量
  7
KANJISTD
210
0.0
220
0.0
230
1.0
 11
1.000001
 21
0.0
 31
0.0
  0
MTEXT
  5
3BE
100
AcDbEntity
  8
0_0
  6
AI9-LTYPE2
 62
     7
100
AcDbMText
 10
630.745307
 20
732.516293
 30
0.0
 40
30.000001
 41
0.0
 71
     1
 72
     2
  1
\fMS UI Gothic|b0|i0|c128;１７.４Kw（１５,０００Kcal/h)
  7
KANJISTD
210
0.0
220
0.0
230
1.0
 11
1.000001
 21
0.0
 31
0.0
  0
LINE
  5
3BD
100
AcDbEntity
  8
0_0
  6
AI9-LTYPE2
 62
     7
100
AcDbLine
 10
606.933496
 20
-177.200553
 30
0.0
 11
606.933496
 21
-244.979362
 31
0.0
  0
LINE
  5
3BC
100
AcDbEntity
  8
0_0
  6
AI9-LTYPE2
 62
     7
100
AcDbLine
 10
646.933122
 20
-177.200553
 30
0.0
 11
646.933122
 21
-244.979362
 31
0.0
  0
SPLINE
  5
3BB
100
AcDbEntity
  8
0_0
  6
AI9-LTYPE2
 62
     7
100
AcDbSpline
210
0.0
220
0.0
230
1.0
 70
     8
 71
     3
 72
    11
 73
     7
 74
     0
 42
0.00000001
 43
0.00000001
 40
0.0
 40
0.0
 40
0.0
 40
0.0
 40
1.0
 40
1.0
 40
1.0
 40
2.0
 40
2.0
 40
2.0
 40
2.0
 10
606.93349609374991
 20
-244.97936197916664
 30
0.0
 10
606.93349609374991
 20
-256.02502712673606
 30
0.0
 10
615.88729926215274
 20
-264.97917480468749
 30
0.0
 10
626.93365342881941
 20
-264.97917480468749
 30
0.0
 10
637.97931857638878
 20
-264.97917480468749
 30
0.0
 10
646.93312174479161
 20
-256.02502712673606
 30
0.0
 10
646.93312174479161
 20
-244.97936197916664
 30
0.0
  0
LINE
  5
3BA
100
AcDbEntity
  8
0_0
 62
     7
100
AcDbLine
 10
-723.679342
 20
-305.339157
 30
0.0
 11
-723.679342
 21
-330.339182
 31
0.0
  0
LINE
  5
3B9
100
AcDbEntity
  8
0_0
 62
     7
100
AcDbLine
 10
-711.679385
 20
-297.339301
 30
0.0
 11
-711.679385
 21
-338.339038
 31
0.0
  0
LINE
  5
3B8
100
AcDbEntity
  8
0_0
 62
     7
100
AcDbLine
 10
-694.679217
 20
-297.339301
 30
0.0
 11
-694.679217
 21
-338.339038
 31
0.0
  0
LINE
  5
3B7
100
AcDbEntity
  8
0_0
 62
     7
100
AcDbLine
 10
-682.67926
 20
-305.339157
 30
0.0
 11
-682.67926
 21
-330.339182
 31
0.0
  0
LINE
  5
3B6
100
AcDbEntity
  8
0_0
 62
     7
100
AcDbLine
 10
-711.679385
 20
-297.339301
 30
0.0
 11
-694.679217
 21
-297.339301
 31
0.0
  0
LINE
  5
3B5
100
AcDbEntity
  8
0_0
 62
     7
100
AcDbLine
 10
-711.679385
 20
-338.339038
 30
0.0
 11
-694.679217
 21
-338.339038
 31
0.0
  0
LINE
  5
3B4
100
AcDbEntity
  8
0_0
 62
     7
100
AcDbLine
 10
-711.679385
 20
-305.339157
 30
0.0
 11
-723.679342
 21
-305.339157
 31
0.0
  0
LINE
  5
3B3
100
AcDbEntity
  8
0_0
 62
     7
100
AcDbLine
 10
-711.679385
 20
-330.339182
 30
0.0
 11
-723.679342
 21
-330.339182
 31
0.0
  0
LINE
  5
3B2
100
AcDbEntity
  8
0_0
 62
     7
100
AcDbLine
 10
-694.679217
 20
-305.339157
 30
0.0
 11
-682.67926
 21
-305.339157
 31
0.0
  0
LINE
  5
3B1
100
AcDbEntity
  8
0_0
 62
     7
100
AcDbLine
 10
-694.679217
 20
-330.339182
 30
0.0
 11
-682.67926
 21
-330.339182
 31
0.0
  0
LINE
  5
3B0
100
AcDbEntity
  8
0_0
 62
     7
100
AcDbLine
 10
-711.679385
 20
-312.83913
 30
0.0
 11
-723.679342
 21
-312.83913
 31
0.0
  0
LINE
  5
3AF
100
AcDbEntity
  8
0_0
 62
     7
100
AcDbLine
 10
-711.679385
 20
-322.839209
 30
0.0
 11
-723.679342
 21
-322.839209
 31
0.0
  0
LINE
  5
3AE
100
AcDbEntity
  8
0_0
 62
     7
100
AcDbLine
 10
-694.679217
 20
-312.83913
 30
0.0
 11
-682.67926
 21
-312.83913
 31
0.0
  0
LINE
  5
3AD
100
AcDbEntity
  8
0_0
 62
     7
100
AcDbLine
 10
-694.679217
 20
-322.839209
 30
0.0
 11
-682.67926
 21
-322.839209
 31
0.0
  0
LINE
  5
3AC
100
AcDbEntity
  8
0_0
 62
     7
100
AcDbLine
 10
-711.679385
 20
-307.839263
 30
0.0
 11
-694.679217
 21
-307.839263
 31
0.0
  0
LINE
  5
3AB
100
AcDbEntity
  8
0_0
 62
     7
100
AcDbLine
 10
-711.679385
 20
-327.839076
 30
0.0
 11
-694.679217
 21
-327.839076
 31
0.0
  0
CIRCLE
  5
3AA
100
AcDbEntity
  8
0_0
 62
     7
100
AcDbCircle
 10
-605.14463
 20
-460.687815
 30
0.0
 40
28.000014
  0
CIRCLE
  5
3A9
100
AcDbEntity
  8
0_0
 62
     7
100
AcDbCircle
 10
-605.144803
 20
-460.687815
 30
0.0
 40
19.999985
  0
CIRCLE
  5
3A8
100
AcDbEntity
  8
0_0
 62
     7
100
AcDbCircle
 10
-605.055402
 20
-291.422694
 30
0.0
 40
17.938268
  0
LINE
  5
3A7
100
AcDbEntity
  8
0_0
  6
AI9-LTYPE2
 62
     7
100
AcDbLine
 10
520.352045
 20
-18.367182
 30
0.0
 11
685.352138
 21
-33.367128
 31
0.0
  0
INSERT
  5
385
100
AcDbEntity
  8
0_0
  6
AI9-LTYPE1
 62
     7
100
AcDbBlockReference
  2
AI9-BLK74
 10
677.47286
 20
9.132948
 30
0.0
  0
INSERT
  5
361
100
AcDbEntity
  8
0_0
 62
     7
100
AcDbBlockReference
  2
AI9-BLK70
 10
944.056415
 20
139.276339
 30
0.0
  0
LINE
  5
35F
100
AcDbEntity
  8
0_0
 62
     7
100
AcDbLine
 10
-755.144777
 20
691.053426
 30
0.0
 11
-455.144828
 21
691.053426
 31
0.0
  0
LINE
  5
35E
100
AcDbEntity
  8
0_0
 62
     7
100
AcDbLine
 10
-745.144698
 20
-38.367339
 30
0.0
 11
-125.144644
 21
-38.367339
 31
0.0
  0
LINE
  5
35D
100
AcDbEntity
  8
0_0
 62
     7
100
AcDbLine
 10
-745.144698
 20
-58.367152
 30
0.0
 11
-405.144779
 21
-58.367152
 31
0.0
  0
LINE
  5
35C
100
AcDbEntity
  8
0_0
 62
     7
100
AcDbLine
 10
-745.144698
 20
-178.367063
 30
0.0
 11
-405.144779
 21
-178.367063
 31
0.0
  0
LINE
  5
35B
100
AcDbEntity
  8
0_0
 62
     7
100
AcDbLine
 10
-745.144698
 20
-198.36722
 30
0.0
 11
-125.144644
 21
-198.36722
 31
0.0
  0
LINE
  5
35A
100
AcDbEntity
  8
0_0
 62
     7
100
AcDbLine
 10
-745.144698
 20
-258.367348
 30
0.0
 11
-405.144779
 21
-258.367348
 31
0.0
  0
LINE
  5
359
100
AcDbEntity
  8
0_0
 62
     7
100
AcDbLine
 10
-527.14629
 20
-307.644271
 30
0.0
 11
-516.098386
 21
-307.644271
 31
0.0
  0
LINE
  5
358
100
AcDbEntity
  8
0_0
 62
     7
100
AcDbLine
 10
-527.14629
 20
-327.850789
 30
0.0
 11
-523.814883
 21
-327.850789
 31
0.0
  0
LINE
  5
357
100
AcDbEntity
  8
0_0
 62
     7
100
AcDbLine
 10
-577.146339
 20
-307.644271
 30
0.0
 11
-584.931911
 21
-307.644271
 31
0.0
  0
LINE
  5
356
100
AcDbEntity
  8
0_0
 62
     7
100
AcDbLine
 10
-755.144777
 20
956.053616
 30
0.0
 11
-755.144777
 21
526.053678
 31
0.0
  0
LINE
  5
355
100
AcDbEntity
  8
0_0
 62
     7
100
AcDbLine
 10
-455.144828
 20
956.053616
 30
0.0
 11
-455.144828
 21
631.053643
 31
0.0
  0
LINE
  5
354
100
AcDbEntity
  8
0_0
 62
     7
100
AcDbLine
 10
-795.144747
 20
986.053507
 30
0.0
 11
-755.144777
 21
956.053616
 31
0.0
  0
INSERT
  5
332
100
AcDbEntity
  8
0_0
 62
     7
100
AcDbBlockReference
  2
AI9-BLK66
 10
-605.14463
 20
640.080741
 30
0.0
  0
LINE
  5
330
100
AcDbEntity
  8
0_0
 62
     7
100
AcDbLine
 10
-570.144872
 20
956.076698
 30
0.0
 11
-569.968483
 21
691.076853
 31
0.0
  0
LINE
  5
32F
100
AcDbEntity
  8
0_0
 62
     7
100
AcDbLine
 10
-640.144733
 20
956.030189
 30
0.0
 11
-639.968689
 21
691.030344
 31
0.0
  0
LINE
  5
32E
100
AcDbEntity
  8
0_0
 62
     7
100
AcDbLine
 10
-665.144758
 20
956.013653
 30
0.0
 11
-664.968541
 21
691.013808
 31
0.0
  0
LINE
  5
32D
100
AcDbEntity
  8
0_0
 62
     7
100
AcDbLine
 10
-545.144847
 20
956.093579
 30
0.0
 11
-544.968631
 21
691.093389
 31
0.0
  0
LINE
  5
32C
100
AcDbEntity
  8
0_0
 62
     7
100
AcDbLine
 10
-735.144619
 20
955.967144
 30
0.0
 11
-734.968575
 21
690.967299
 31
0.0
  0
LINE
  5
32B
100
AcDbEntity
  8
0_0
 62
     7
100
AcDbLine
 10
-475.144813
 20
956.140088
 30
0.0
 11
-474.968597
 21
691.139898
 31
0.0
  0
LINE
  5
32A
100
AcDbEntity
  8
0_0
 62
     7
100
AcDbLine
 10
-745.144698
 20
-680.367084
 30
0.0
 11
-125.144644
 21
-680.367084
 31
0.0
  0
LINE
  5
329
100
AcDbEntity
  8
0_0
 62
     7
100
AcDbLine
 10
-135.144722
 20
956.140088
 30
0.0
 11
-134.968678
 21
691.139898
 31
0.0
  0
LINE
  5
328
100
AcDbEntity
  8
0_0
 62
     7
100
AcDbLine
 10
-395.144701
 20
955.967144
 30
0.0
 11
-394.968656
 21
690.967299
 31
0.0
  0
LINE
  5
327
100
AcDbEntity
  8
0_0
 62
     7
100
AcDbLine
 10
-205.144756
 20
956.093579
 30
0.0
 11
-204.96854
 21
691.093389
 31
0.0
  0
LINE
  5
326
100
AcDbEntity
  8
0_0
 62
     7
100
AcDbLine
 10
-325.144839
 20
956.013653
 30
0.0
 11
-324.968623
 21
691.013808
 31
0.0
  0
LINE
  5
325
100
AcDbEntity
  8
0_0
 62
     7
100
AcDbLine
 10
-300.144815
 20
956.030189
 30
0.0
 11
-299.968598
 21
691.030344
 31
0.0
  0
LINE
  5
324
100
AcDbEntity
  8
0_0
 62
     7
100
AcDbLine
 10
-230.144781
 20
956.076698
 30
0.0
 11
-229.968564
 21
691.076853
 31
0.0
  0
LINE
  5
323
100
AcDbEntity
  8
0_0
 62
     7
100
AcDbLine
 10
-115.144737
 20
956.053616
 30
0.0
 11
-115.144737
 21
526.053678
 31
0.0
  0
LINE
  5
322
100
AcDbEntity
  8
0_0
 62
     7
100
AcDbLine
 10
-415.144858
 20
956.053616
 30
0.0
 11
-415.144858
 21
526.053678
 31
0.0
  0
LINE
  5
321
100
AcDbEntity
  8
0_0
 62
     7
100
AcDbLine
 10
-75.144767
 20
1076.053526
 30
0.0
 11
-75.144767
 21
486.053708
 31
0.0
  0
LINE
  5
320
100
AcDbEntity
  8
0_0
 62
     7
100
AcDbLine
 10
-455.144828
 20
956.053616
 30
0.0
 11
-455.144828
 21
526.053678
 31
0.0
  0
LINE
  5
31F
100
AcDbEntity
  8
0_0
 62
     7
100
AcDbLine
 10
-455.144828
 20
486.053708
 30
0.0
 11
-75.144767
 21
486.053708
 31
0.0
  0
INSERT
  5
2FD
100
AcDbEntity
  8
0_0
 62
     7
100
AcDbBlockReference
  2
AI9-BLK62
 10
-265.144712
 20
638.035732
 30
0.0
  0
LINE
  5
2FB
100
AcDbEntity
  8
0_0
 62
     7
100
AcDbLine
 10
-415.144858
 20
691.053426
 30
0.0
 11
-115.144737
 21
691.053426
 31
0.0
  0
LINE
  5
2FA
100
AcDbEntity
  8
0_0
 62
     7
100
AcDbLine
 10
-122.183757
 20
732.929251
 30
0.0
 11
-122.183757
 21
691.053426
 31
0.0
  0
LINE
  5
2F9
100
AcDbEntity
  8
0_0
 62
     7
100
AcDbLine
 10
-127.151412
 20
732.929251
 30
0.0
 11
-127.151412
 21
691.053426
 31
0.0
  0
INSERT
  5
2F0
100
AcDbEntity
  8
0_0
 62
     7
100
AcDbBlockReference
  2
AI9-BLK61
 10
-122.143191
 20
790.753456
 30
0.0
  0
POLYLINE
  5
2E9
100
AcDbEntity
  8
0_0
 62
     7
100
AcDb2dPolyline
 66
     1
 10
0.0
 20
0.0
 30
0.0
 70
     1
  0
VERTEX
  5
2EA
100
AcDbEntity
  8
0_0
 62
     7
100
AcDbVertex
100
AcDb2dVertex
 10
-128.973523
 20
848.750949
 30
0.0
  0
VERTEX
  5
2EB
100
AcDbEntity
  8
0_0
 62
     7
100
AcDbVertex
100
AcDb2dVertex
 10
-125.567357
 20
848.750949
 30
0.0
  0
VERTEX
  5
2EC
100
AcDbEntity
  8
0_0
 62
     7
100
AcDbVertex
100
AcDb2dVertex
 10
-125.567357
 20
733.029503
 30
0.0
  0
VERTEX
  5
2ED
100
AcDbEntity
  8
0_0
 62
     7
100
AcDbVertex
100
AcDb2dVertex
 10
-128.973523
 20
733.029503
 30
0.0
  0
SEQEND
  5
2EE
100
AcDbEntity
  8
0_0
 62
     7
  0
LINE
  5
2E8
100
AcDbEntity
  8
0_0
 62
     7
100
AcDbLine
 10
-75.144767
 20
986.053507
 30
0.0
 11
-115.144737
 21
956.053616
 31
0.0
  0
LINE
  5
2E7
100
AcDbEntity
  8
0_0
 62
     7
100
AcDbLine
 10
-455.144828
 20
986.053507
 30
0.0
 11
-75.144767
 21
986.053507
 31
0.0
  0
LINE
  5
2E6
100
AcDbEntity
  8
0_0
 62
     7
100
AcDbLine
 10
-455.144828
 20
1076.053526
 30
0.0
 11
-75.144767
 21
1076.053526
 31
0.0
  0
LINE
  5
2E5
100
AcDbEntity
  8
0_0
 62
     7
100
AcDbLine
 10
-360.14477
 20
1012.053643
 30
0.0
 11
-170.144826
 21
1012.053643
 31
0.0
  0
LINE
  5
2E4
100
AcDbEntity
  8
0_0
 62
     7
100
AcDbLine
 10
-360.14477
 20
1049.053624
 30
0.0
 11
-170.144826
 21
1049.053624
 31
0.0
  0
LINE
  5
2E3
100
AcDbEntity
  8
0_0
 62
     7
100
AcDbLine
 10
-370.144676
 20
1002.053564
 30
0.0
 11
-160.144747
 21
1002.053564
 31
0.0
  0
LINE
  5
2E2
100
AcDbEntity
  8
0_0
 62
     7
100
AcDbLine
 10
-370.144676
 20
1059.053703
 30
0.0
 11
-160.144747
 21
1059.053703
 31
0.0
  0
LINE
  5
2E1
100
AcDbEntity
  8
0_0
 62
     7
100
AcDbLine
 10
-415.144858
 20
956.053616
 30
0.0
 11
-115.144737
 21
956.053616
 31
0.0
  0
LINE
  5
2E0
100
AcDbEntity
  8
0_0
 62
     7
100
AcDbLine
 10
-360.14477
 20
1049.053624
 30
0.0
 11
-360.14477
 21
1012.053643
 31
0.0
  0
LINE
  5
2DF
100
AcDbEntity
  8
0_0
 62
     7
100
AcDbLine
 10
-370.144676
 20
1059.053703
 30
0.0
 11
-370.144676
 21
1002.053564
 31
0.0
  0
LINE
  5
2DE
100
AcDbEntity
  8
0_0
 62
     7
100
AcDbLine
 10
-170.144826
 20
1049.053624
 30
0.0
 11
-170.144826
 21
1012.053643
 31
0.0
  0
LINE
  5
2DD
100
AcDbEntity
  8
0_0
 62
     7
100
AcDbLine
 10
-160.144747
 20
1059.053703
 30
0.0
 11
-160.144747
 21
1002.053564
 31
0.0
  0
INSERT
  5
2BB
100
AcDbEntity
  8
0_0
 62
     7
100
AcDbBlockReference
  2
AI9-BLK57
 10
-128.741151
 20
1030.553634
 30
0.0
  0
LINE
  5
2B9
100
AcDbEntity
  8
0_0
 62
     7
100
AcDbLine
 10
-75.144767
 20
176.632802
 30
0.0
 11
-75.144767
 21
76.632704
 31
0.0
  0
LINE
  5
2B8
100
AcDbEntity
  8
0_0
 62
     7
100
AcDbLine
 10
-80.144807
 20
46.632812
 30
0.0
 11
-80.144807
 21
-683.367074
 31
0.0
  0
LINE
  5
2B7
100
AcDbEntity
  8
0_0
 62
     7
100
AcDbLine
 10
-125.144644
 20
46.632812
 30
0.0
 11
-125.144644
 21
-683.367074
 31
0.0
  0
LINE
  5
2B6
100
AcDbEntity
  8
0_0
 62
     7
100
AcDbLine
 10
-405.144779
 20
-58.367152
 30
0.0
 11
-405.144779
 21
-178.367063
 31
0.0
  0
LINE
  5
2B5
100
AcDbEntity
  8
0_0
 62
     7
100
AcDbLine
 10
-480.144853
 20
-723.367388
 30
0.0
 11
-50.144743
 21
-723.367388
 31
0.0
  0
LINE
  5
2B4
100
AcDbEntity
  8
0_0
 62
     7
100
AcDbLine
 10
-80.144807
 20
-683.367074
 30
0.0
 11
-125.144644
 21
-683.367074
 31
0.0
  0
CIRCLE
  5
2B3
100
AcDbEntity
  8
0_0
 62
     7
100
AcDbCircle
 10
-100.144792
 20
-703.367231
 30
0.0
 40
19.999985
  0
LINE
  5
2B2
100
AcDbEntity
  8
0_0
 62
     7
100
AcDbLine
 10
-405.144779
 20
-680.367084
 30
0.0
 11
-125.144644
 21
-680.367084
 31
0.0
  0
LINE
  5
2B1
100
AcDbEntity
  8
0_0
 62
     7
100
AcDbLine
 10
-405.144779
 20
-258.367348
 30
0.0
 11
-75.144767
 21
-258.367348
 31
0.0
  0
LINE
  5
2B0
100
AcDbEntity
  8
0_0
 62
     7
100
AcDbLine
 10
-455.144828
 20
46.632812
 30
0.0
 11
-75.144767
 21
46.632812
 31
0.0
  0
LINE
  5
2AF
100
AcDbEntity
  8
0_0
 62
     7
100
AcDbLine
 10
-455.144828
 20
76.632704
 30
0.0
 11
-75.144767
 21
76.632704
 31
0.0
  0
LINE
  5
2AE
100
AcDbEntity
  8
0_0
 62
     7
100
AcDbLine
 10
-342.679342
 20
-327.850789
 30
0.0
 11
-330.480948
 21
-327.850789
 31
0.0
  0
LINE
  5
2AD
100
AcDbEntity
  8
0_0
 62
     7
100
AcDbLine
 10
-342.679342
 20
-307.644271
 30
0.0
 11
-330.480948
 21
-307.644271
 31
0.0
  0
LINE
  5
2AC
100
AcDbEntity
  8
0_0
 62
     7
100
AcDbLine
 10
-415.144858
 20
-483.367223
 30
0.0
 11
-130.144683
 21
-483.367223
 31
0.0
  0
INSERT
  5
299
100
AcDbEntity
  8
0_0
 62
     7
100
AcDbBlockReference
  2
AI9-BLK55
 10
-297.460913
 20
-282.352791
 30
0.0
  0
INSERT
  5
28B
100
AcDbEntity
  8
0_0
 62
     7
100
AcDbBlockReference
  2
AI9-BLK54
 10
-307.981029
 20
-423.512823
 30
0.0
  0
MTEXT
  5
289
100
AcDbEntity
  8
0_0
 62
     7
100
AcDbMText
 10
-556.368107
 20
-360.456364
 30
0.0
 40
20.0
 41
0.0
 71
     1
 72
     2
  1
\fMS UI Gothic|b0|i0|c128;ガスコック
  7
KANJISTD
210
0.0
220
0.0
230
1.0
 11
1.000001
 21
0.0
 31
0.0
  0
INSERT
  5
27F
100
AcDbEntity
  8
0_0
 62
     7
100
AcDbBlockReference
  2
AI9-BLK53
 10
-408.996224
 20
-362.458496
 30
0.0
  0
LINE
  5
27D
100
AcDbEntity
  8
0_0
 62
     7
100
AcDbLine
 10
-342.679342
 20
-305.339157
 30
0.0
 11
-342.679342
 21
-330.339182
 31
0.0
  0
LINE
  5
27C
100
AcDbEntity
  8
0_0
 62
     7
100
AcDbLine
 10
-354.679298
 20
-297.339301
 30
0.0
 11
-354.679298
 21
-338.339038
 31
0.0
  0
LINE
  5
27B
100
AcDbEntity
  8
0_0
 62
     7
100
AcDbLine
 10
-371.679294
 20
-297.339301
 30
0.0
 11
-371.679294
 21
-338.339038
 31
0.0
  0
LINE
  5
27A
100
AcDbEntity
  8
0_0
 62
     7
100
AcDbLine
 10
-383.679423
 20
-305.339157
 30
0.0
 11
-383.679423
 21
-330.339182
 31
0.0
  0
LINE
  5
279
100
AcDbEntity
  8
0_0
 62
     7
100
AcDbLine
 10
-389.892825
 20
-327.850789
 30
0.0
 11
-383.679423
 21
-327.850789
 31
0.0
  0
LINE
  5
278
100
AcDbEntity
  8
0_0
 62
     7
100
AcDbLine
 10
-371.679294
 20
-327.839076
 30
0.0
 11
-354.679298
 21
-327.839076
 31
0.0
  0
LINE
  5
277
100
AcDbEntity
  8
0_0
 62
     7
100
AcDbLine
 10
-371.679294
 20
-338.339038
 30
0.0
 11
-354.679298
 21
-338.339038
 31
0.0
  0
LINE
  5
276
100
AcDbEntity
  8
0_0
 62
     7
100
AcDbLine
 10
-371.679294
 20
-322.839209
 30
0.0
 11
-383.679423
 21
-322.839209
 31
0.0
  0
LINE
  5
275
100
AcDbEntity
  8
0_0
 62
     7
100
AcDbLine
 10
-371.679294
 20
-330.339182
 30
0.0
 11
-383.679423
 21
-330.339182
 31
0.0
  0
LINE
  5
274
100
AcDbEntity
  8
0_0
 62
     7
100
AcDbLine
 10
-354.679298
 20
-322.839209
 30
0.0
 11
-342.679342
 21
-322.839209
 31
0.0
  0
LINE
  5
273
100
AcDbEntity
  8
0_0
 62
     7
100
AcDbLine
 10
-354.679298
 20
-330.339182
 30
0.0
 11
-342.679342
 21
-330.339182
 31
0.0
  0
LINE
  5
272
100
AcDbEntity
  8
0_0
 62
     7
100
AcDbLine
 10
-389.63117
 20
-307.644271
 30
0.0
 11
-383.679423
 21
-307.644271
 31
0.0
  0
LINE
  5
271
100
AcDbEntity
  8
0_0
 62
     7
100
AcDbLine
 10
-371.679294
 20
-307.839263
 30
0.0
 11
-354.679298
 21
-307.839263
 31
0.0
  0
LINE
  5
270
100
AcDbEntity
  8
0_0
 62
     7
100
AcDbLine
 10
-371.679294
 20
-297.339301
 30
0.0
 11
-354.679298
 21
-297.339301
 31
0.0
  0
LINE
  5
26F
100
AcDbEntity
  8
0_0
 62
     7
100
AcDbLine
 10
-371.679294
 20
-312.83913
 30
0.0
 11
-383.679423
 21
-312.83913
 31
0.0
  0
LINE
  5
26E
100
AcDbEntity
  8
0_0
 62
     7
100
AcDbLine
 10
-371.679294
 20
-305.339157
 30
0.0
 11
-383.679423
 21
-305.339157
 31
0.0
  0
LINE
  5
26D
100
AcDbEntity
  8
0_0
 62
     7
100
AcDbLine
 10
-354.679298
 20
-312.83913
 30
0.0
 11
-342.679342
 21
-312.83913
 31
0.0
  0
LINE
  5
26C
100
AcDbEntity
  8
0_0
 62
     7
100
AcDbLine
 10
-354.679298
 20
-305.339157
 30
0.0
 11
-342.679342
 21
-305.339157
 31
0.0
  0
POLYLINE
  5
266
100
AcDbEntity
  8
0_0
 62
     7
100
AcDb2dPolyline
 66
     1
 10
0.0
 20
0.0
 30
0.0
 70
     1
  0
VERTEX
  5
267
100
AcDbEntity
  8
0_0
 62
     7
100
AcDbVertex
100
AcDb2dVertex
 10
-155.275966
 20
-364.722957
 30
0.0
  0
VERTEX
  5
268
100
AcDbEntity
  8
0_0
 62
     7
100
AcDbVertex
100
AcDb2dVertex
 10
-127.2055
 20
-364.722957
 30
0.0
  0
VERTEX
  5
269
100
AcDbEntity
  8
0_0
 62
     7
100
AcDbVertex
100
AcDb2dVertex
 10
-127.2055
 20
-414.149742
 30
0.0
  0
VERTEX
  5
26A
100
AcDbEntity
  8
0_0
 62
     7
100
AcDbVertex
100
AcDb2dVertex
 10
-155.275966
 20
-414.149742
 30
0.0
  0
SEQEND
  5
26B
100
AcDbEntity
  8
0_0
 62
     7
  0
MTEXT
  5
265
100
AcDbEntity
  8
0_0
 62
     7
100
AcDbMText
 10
-296.709366
 20
-552.278592
 30
0.0
 40
20.0
 41
0.0
 71
     1
 72
     2
  1
\fMS UI Gothic|b0|i0|c128;排水バルブ　４０A
  7
KANJISTD
210
0.0
220
0.0
230
1.0
 11
1.000001
 21
0.0
 31
0.0
  0
INSERT
  5
25B
100
AcDbEntity
  8
0_0
 62
     7
100
AcDbBlockReference
  2
AI9-BLK52
 10
-284.742654
 20
-526.481731
 30
0.0
  0
CIRCLE
  5
259
100
AcDbEntity
  8
0_0
 62
     7
100
AcDbCircle
 10
-265.144798
 20
-460.687815
 30
0.0
 40
20.000071
  0
CIRCLE
  5
258
100
AcDbEntity
  8
0_0
 62
     7
100
AcDbCircle
 10
-265.144712
 20
-460.687815
 30
0.0
 40
28.000014
  0
CIRCLE
  5
257
100
AcDbEntity
  8
0_0
 62
     7
100
AcDbCircle
 10
-265.144712
 20
-460.687815
 30
0.0
 40
25.000024
  0
LINE
  5
256
100
AcDbEntity
  8
0_0
 62
     7
100
AcDbLine
 10
-130.144683
 20
-414.149742
 30
0.0
 11
-130.144683
 21
-483.367223
 31
0.0
  0
CIRCLE
  5
255
100
AcDbEntity
  8
0_0
 62
     7
100
AcDbCircle
 10
-212.301339
 20
-315.948674
 30
0.0
 40
10.734487
  0
CIRCLE
  5
254
100
AcDbEntity
  8
0_0
 62
     7
100
AcDbCircle
 10
-212.301339
 20
-315.948674
 30
0.0
 40
22.194942
  0
CIRCLE
  5
253
100
AcDbEntity
  8
0_0
 62
     7
100
AcDbCircle
 10
-212.301339
 20
-315.948674
 30
0.0
 40
14.194913
  0
CIRCLE
  5
252
100
AcDbEntity
  8
0_0
 62
     7
100
AcDbCircle
 10
-212.301426
 20
-315.948674
 30
0.0
 40
24.194906
  0
POLYLINE
  5
24C
100
AcDbEntity
  8
0_0
 62
     7
100
AcDb2dPolyline
 66
     1
 10
0.0
 20
0.0
 30
0.0
 70
     1
  0
VERTEX
  5
24D
100
AcDbEntity
  8
0_0
 62
     7
100
AcDbVertex
100
AcDb2dVertex
 10
-311.738595
 20
-307.322499
 30
0.0
  0
VERTEX
  5
24E
100
AcDbEntity
  8
0_0
 62
     7
100
AcDbVertex
100
AcDb2dVertex
 10
-305.498493
 20
-307.322499
 30
0.0
  0
VERTEX
  5
24F
100
AcDbEntity
  8
0_0
 62
     7
100
AcDbVertex
100
AcDb2dVertex
 10
-305.498493
 20
-327.947252
 30
0.0
  0
VERTEX
  5
250
100
AcDbEntity
  8
0_0
 62
     7
100
AcDbVertex
100
AcDb2dVertex
 10
-311.738595
 20
-327.947252
 30
0.0
  0
SEQEND
  5
251
100
AcDbEntity
  8
0_0
 62
     7
  0
LINE
  5
24B
100
AcDbEntity
  8
0_0
 62
     7
100
AcDbLine
 10
-237.146248
 20
-296.503521
 30
0.0
 11
-237.146248
 21
-337.374067
 31
0.0
  0
CIRCLE
  5
24A
100
AcDbEntity
  8
0_0
 62
     7
100
AcDbCircle
 10
-308.52656
 20
-317.756315
 30
0.0
 40
11.385868
  0
POLYLINE
  5
244
100
AcDbEntity
  8
0_0
 62
     7
100
AcDb2dPolyline
 66
     1
 10
0.0
 20
0.0
 30
0.0
 70
     1
  0
VERTEX
  5
245
100
AcDbEntity
  8
0_0
 62
     7
100
AcDbVertex
100
AcDb2dVertex
 10
-330.480948
 20
-304.94745
 30
0.0
  0
VERTEX
  5
246
100
AcDbEntity
  8
0_0
 62
     7
100
AcDbVertex
100
AcDb2dVertex
 10
-286.326537
 20
-304.94745
 30
0.0
  0
VERTEX
  5
247
100
AcDbEntity
  8
0_0
 62
     7
100
AcDbVertex
100
AcDb2dVertex
 10
-286.326537
 20
-330.565525
 30
0.0
  0
VERTEX
  5
248
100
AcDbEntity
  8
0_0
 62
     7
100
AcDbVertex
100
AcDb2dVertex
 10
-330.480948
 20
-330.565525
 30
0.0
  0
SEQEND
  5
249
100
AcDbEntity
  8
0_0
 62
     7
  0
LINE
  5
243
100
AcDbEntity
  8
0_0
 62
     7
100
AcDbLine
 10
-313.793594
 20
-327.850789
 30
0.0
 11
-303.259526
 21
-327.850789
 31
0.0
  0
LINE
  5
242
100
AcDbEntity
  8
0_0
 62
     7
100
AcDbLine
 10
-330.480948
 20
-325.850911
 30
0.0
 11
-316.533823
 21
-325.850911
 31
0.0
  0
LINE
  5
241
100
AcDbEntity
  8
0_0
 62
     7
100
AcDbLine
 10
-300.519124
 20
-325.850911
 30
0.0
 11
-286.326537
 21
-325.850911
 31
0.0
  0
LINE
  5
240
100
AcDbEntity
  8
0_0
 62
     7
100
AcDbLine
 10
-237.146248
 20
-337.374067
 30
0.0
 11
-223.541739
 21
-337.374067
 31
0.0
  0
CIRCLE
  5
23F
100
AcDbEntity
  8
0_0
 62
     7
100
AcDbCircle
 10
-265.055484
 20
-291.422694
 30
0.0
 40
17.938268
  0
LINE
  5
23E
100
AcDbEntity
  8
0_0
 62
     7
100
AcDbLine
 10
-330.480948
 20
-309.644149
 30
0.0
 11
-316.515908
 21
-309.644149
 31
0.0
  0
LINE
  5
23D
100
AcDbEntity
  8
0_0
 62
     7
100
AcDbLine
 10
-300.537211
 20
-309.644149
 30
0.0
 11
-286.326537
 21
-309.644149
 31
0.0
  0
LINE
  5
23C
100
AcDbEntity
  8
0_0
 62
     7
100
AcDbLine
 10
-237.146248
 20
-307.644271
 30
0.0
 11
-244.93182
 21
-307.644271
 31
0.0
  0
LINE
  5
23B
100
AcDbEntity
  8
0_0
 62
     7
100
AcDbLine
 10
-237.146248
 20
-296.503521
 30
0.0
 11
-226.69848
 21
-296.503521
 31
0.0
  0
SPLINE
  5
23A
100
AcDbEntity
  8
0_0
 62
     7
100
AcDbSpline
210
0.0
220
0.0
230
1.0
 70
     8
 71
     3
 72
     8
 73
     4
 74
     0
 42
0.00000001
 43
0.00000001
 40
0.0
 40
0.0
 40
0.0
 40
0.0
 40
1.0
 40
1.0
 40
1.0
 40
1.0
 10
-128.17753363715278
 20
-340.95352105034721
 30
0.0
 10
-131.46880560980901
 20
-323.00939670138888
 30
0.0
 10
-145.50998128255208
 20
-308.96856553819441
 30
0.0
 10
-163.4539333767361
 20
-305.67712131076388
 30
0.0
  0
LINE
  5
239
100
AcDbEntity
  8
0_0
 62
     7
100
AcDbLine
 10
-176.098295
 20
-305.644048
 30
0.0
 11
-176.098295
 21
-329.537164
 31
0.0
  0
LINE
  5
238
100
AcDbEntity
  8
0_0
 62
     7
100
AcDbLine
 10
-187.146372
 20
-296.503521
 30
0.0
 11
-187.146372
 21
-337.374067
 31
0.0
  0
SPLINE
  5
237
100
AcDbEntity
  8
0_0
 62
     7
100
AcDbSpline
210
0.0
220
0.0
230
1.0
 70
     8
 71
     3
 72
     8
 73
     4
 74
     0
 42
0.00000001
 43
0.00000001
 40
0.0
 40
0.0
 40
0.0
 40
0.0
 40
1.0
 40
1.0
 40
1.0
 40
1.0
 10
-151.73595784505207
 20
-355.07290039062497
 30
0.0
 10
-152.42187635633678
 20
-341.70627441406248
 30
0.0
 10
-162.77886691623263
 20
-330.85043402777774
 30
0.0
 10
-176.0982950846354
 20
-329.53716362847217
 30
0.0
  0
LINE
  5
236
100
AcDbEntity
  8
0_0
 62
     7
100
AcDbLine
 10
-151.735958
 20
-355.0729
 30
0.0
 11
-128.144805
 21
-355.0729
 31
0.0
  0
SPLINE
  5
235
100
AcDbEntity
  8
0_0
 62
     7
100
AcDbSpline
210
0.0
220
0.0
230
1.0
 70
     8
 71
     3
 72
     8
 73
     4
 74
     0
 42
0.00000001
 43
0.00000001
 40
0.0
 40
0.0
 40
0.0
 40
0.0
 40
1.0
 40
1.0
 40
1.0
 40
1.0
 10
-176.0982950846354
 20
-327.52798394097221
 30
0.0
 10
-178.67350396050347
 20
-327.29165039062497
 30
0.0
 10
-181.26852213541665
 20
-327.40017089843747
 30
0.0
 10
-183.81479220920139
 20
-327.85078938802081
 30
0.0
  0
LINE
  5
234
100
AcDbEntity
  8
0_0
 62
     7
100
AcDbLine
 10
-187.146372
 20
-327.850789
 30
0.0
 11
-183.814792
 21
-327.850789
 31
0.0
  0
LINE
  5
233
100
AcDbEntity
  8
0_0
 62
     7
100
AcDbLine
 10
-201.061112
 20
-337.374067
 30
0.0
 11
-187.146372
 21
-337.374067
 31
0.0
  0
LINE
  5
232
100
AcDbEntity
  8
0_0
 62
     7
100
AcDbLine
 10
-150.144668
 20
-361.520741
 30
0.0
 11
-150.144668
 21
-364.722957
 31
0.0
  0
LINE
  5
231
100
AcDbEntity
  8
0_0
 62
     7
100
AcDbLine
 10
-130.144683
 20
-355.0729
 30
0.0
 11
-130.144683
 21
-364.722957
 31
0.0
  0
CIRCLE
  5
230
100
AcDbEntity
  8
0_0
 62
     7
100
AcDbCircle
 10
-140.785205
 20
-386.878711
 30
0.0
 40
9.589596
  0
CIRCLE
  5
22F
100
AcDbEntity
  8
0_0
 62
     7
100
AcDbCircle
 10
-140.785205
 20
-386.878711
 30
0.0
 40
6.589606
  0
LINE
  5
22E
100
AcDbEntity
  8
0_0
 62
     7
100
AcDbLine
 10
-128.144805
 20
-341.314223
 30
0.0
 11
-128.144805
 21
-355.0729
 31
0.0
  0
SPLINE
  5
22D
100
AcDbEntity
  8
0_0
 62
     7
100
AcDbSpline
210
0.0
220
0.0
230
1.0
 70
     8
 71
     3
 72
     8
 73
     4
 74
     0
 42
0.00000001
 43
0.00000001
 40
0.0
 40
0.0
 40
0.0
 40
0.0
 40
1.0
 40
1.0
 40
1.0
 40
1.0
 10
-150.14466824001735
 20
-361.52074110243052
 30
0.0
 10
-149.76829155815972
 20
-359.39339463975693
 30
0.0
 10
-149.63048773871526
 20
-357.23056369357636
 30
0.0
 10
-149.73349609374998
 20
-355.07290039062497
 30
0.0
  0
POLYLINE
  5
225
100
AcDbEntity
  8
0_0
 62
     7
100
AcDb2dPolyline
 66
     1
 10
0.0
 20
0.0
 30
0.0
  0
VERTEX
  5
226
100
AcDbEntity
  8
0_0
 62
     7
100
AcDbVertex
100
AcDb2dVertex
 10
-199.618823
 20
-277.494173
 30
0.0
  0
VERTEX
  5
227
100
AcDbEntity
  8
0_0
 62
     7
100
AcDbVertex
100
AcDb2dVertex
 10
-199.618823
 20
-291.014106
 30
0.0
  0
VERTEX
  5
228
100
AcDbEntity
  8
0_0
 62
     7
100
AcDbVertex
100
AcDb2dVertex
 10
-211.680619
 20
-291.014106
 30
0.0
  0
VERTEX
  5
229
100
AcDbEntity
  8
0_0
 62
     7
100
AcDbVertex
100
AcDb2dVertex
 10
-211.680619
 20
-263.465744
 30
0.0
  0
VERTEX
  5
22A
100
AcDbEntity
  8
0_0
 62
     7
100
AcDbVertex
100
AcDb2dVertex
 10
-199.618823
 20
-263.465744
 30
0.0
  0
VERTEX
  5
22B
100
AcDbEntity
  8
0_0
 62
     7
100
AcDbVertex
100
AcDb2dVertex
 10
-199.618823
 20
-272.493962
 30
0.0
  0
SEQEND
  5
22C
100
AcDbEntity
  8
0_0
 62
     7
  0
LINE
  5
224
100
AcDbEntity
  8
0_0
 62
     7
100
AcDbLine
 10
-187.146372
 20
-307.644271
 30
0.0
 11
-176.098295
 21
-307.644271
 31
0.0
  0
LINE
  5
223
100
AcDbEntity
  8
0_0
 62
     7
100
AcDbLine
 10
-206.396876
 20
-277.494173
 30
0.0
 11
-178.10558
 21
-277.494173
 31
0.0
  0
LINE
  5
222
100
AcDbEntity
  8
0_0
 62
     7
100
AcDbLine
 10
-206.396876
 20
-272.493962
 30
0.0
 11
-178.10558
 21
-272.493962
 31
0.0
  0
LINE
  5
221
100
AcDbEntity
  8
0_0
 62
     7
100
AcDbLine
 10
-206.396876
 20
-272.493962
 30
0.0
 11
-206.396876
 21
-277.494173
 31
0.0
  0
LINE
  5
220
100
AcDbEntity
  8
0_0
 62
     7
100
AcDbLine
 10
-197.904199
 20
-296.503521
 30
0.0
 11
-187.146372
 21
-296.503521
 31
0.0
  0
SPLINE
  5
21F
100
AcDbEntity
  8
0_0
 62
     7
100
AcDbSpline
210
0.0
220
0.0
230
1.0
 70
     8
 71
     3
 72
    11
 73
     7
 74
     0
 42
0.00000001
 43
0.00000001
 40
0.0
 40
0.0
 40
0.0
 40
0.0
 40
1.0
 40
1.0
 40
1.0
 40
2.0
 40
2.0
 40
2.0
 40
2.0
 10
-178.10557996961805
 20
-277.49417317708333
 30
0.0
 10
-176.724957953559
 20
-277.49417317708333
 30
0.0
 10
-175.60564643012151
 20
-276.37486165364578
 30
0.0
 10
-175.60564643012151
 20
-274.99406738281249
 30
0.0
 10
-175.60564643012151
 20
-273.61327311197914
 30
0.0
 10
-176.724957953559
 20
-272.49396158854165
 30
0.0
 10
-178.10557996961805
 20
-272.49396158854165
 30
0.0
  0
LINE
  5
21E
100
AcDbEntity
  8
0_0
 62
     7
100
AcDbLine
 10
-176.098295
 20
-305.644048
 30
0.0
 11
-163.814807
 21
-305.644048
 31
0.0
  0
LINE
  5
21D
100
AcDbEntity
  8
0_0
 62
     7
100
AcDbLine
 10
-202.333386
 20
-258.669827
 30
0.0
 11
-202.333386
 21
-260.632498
 31
0.0
  0
LINE
  5
21C
100
AcDbEntity
  8
0_0
 62
     7
100
AcDbLine
 10
-208.815506
 20
-258.669827
 30
0.0
 11
-208.815506
 21
-260.828868
 31
0.0
  0
LINE
  5
21B
100
AcDbEntity
  8
0_0
 62
     7
100
AcDbLine
 10
-203.315583
 20
-261.024894
 30
0.0
 11
-203.315583
 21
-263.380306
 31
0.0
  0
LINE
  5
21A
100
AcDbEntity
  8
0_0
 62
     7
100
AcDbLine
 10
-207.047655
 20
-260.828868
 30
0.0
 11
-207.047655
 21
-263.183936
 31
0.0
  0
POLYLINE
  5
214
100
AcDbEntity
  8
0_0
 62
     7
100
AcDb2dPolyline
 66
     1
 10
0.0
 20
0.0
 30
0.0
 70
     1
  0
VERTEX
  5
215
100
AcDbEntity
  8
0_0
 62
     7
100
AcDbVertex
100
AcDb2dVertex
 10
-210.386986
 20
-260.828868
 30
0.0
  0
VERTEX
  5
216
100
AcDbEntity
  8
0_0
 62
     7
100
AcDbVertex
100
AcDb2dVertex
 10
-200.565708
 20
-260.828868
 30
0.0
  0
VERTEX
  5
217
100
AcDbEntity
  8
0_0
 62
     7
100
AcDbVertex
100
AcDb2dVertex
 10
-200.565708
 20
-263.183936
 30
0.0
  0
VERTEX
  5
218
100
AcDbEntity
  8
0_0
 62
     7
100
AcDbVertex
100
AcDb2dVertex
 10
-210.386986
 20
-263.183936
 30
0.0
  0
SEQEND
  5
219
100
AcDbEntity
  8
0_0
 62
     7
  0
LINE
  5
213
100
AcDbEntity
  8
0_0
 62
     7
100
AcDbLine
 10
-130.144683
 20
-258.367348
 30
0.0
 11
-130.144683
 21
-333.748448
 31
0.0
  0
LINE
  5
212
100
AcDbEntity
  8
0_0
 62
     7
100
AcDbLine
 10
-405.144779
 20
-178.367063
 30
0.0
 11
-125.144644
 21
-178.367063
 31
0.0
  0
LINE
  5
211
100
AcDbEntity
  8
0_0
 62
     7
100
AcDbLine
 10
-405.144779
 20
-58.367152
 30
0.0
 11
-125.144644
 21
-58.367152
 31
0.0
  0
LINE
  5
210
100
AcDbEntity
  8
0_0
 62
     7
100
AcDbLine
 10
-325.144839
 20
-83.564236
 30
0.0
 11
-205.144756
 21
-83.564236
 31
0.0
  0
LINE
  5
20F
100
AcDbEntity
  8
0_0
 62
     7
100
AcDbLine
 10
-325.144839
 20
-93.564315
 30
0.0
 11
-205.144756
 21
-93.564315
 31
0.0
  0
CIRCLE
  5
20E
100
AcDbEntity
  8
0_0
 62
     7
100
AcDbCircle
 10
-265.144712
 20
-122.19547
 30
0.0
 40
14.999946
  0
SPLINE
  5
20D
100
AcDbEntity
  8
0_0
 62
     7
100
AcDbSpline
210
0.0
220
0.0
230
1.0
 70
     8
 71
     3
 72
    11
 73
     7
 74
     0
 42
0.00000001
 43
0.00000001
 40
0.0
 40
0.0
 40
0.0
 40
0.0
 40
1.0
 40
1.0
 40
1.0
 40
2.0
 40
2.0
 40
2.0
 40
2.0
 10
-325.14483913845481
 20
-83.5642361111111
 30
0.0
 10
-327.90608317057291
 20
-83.5642361111111
 30
0.0
 10
-330.14470621744789
 20
-85.802859157986106
 30
0.0
 10
-330.14470621744789
 20
-88.564103190104163
 30
0.0
 10
-330.14470621744789
 20
-91.325691731770831
 30
0.0
 10
-327.90608317057291
 20
-93.564314778645823
 30
0.0
 10
-325.14483913845481
 20
-93.564314778645823
 30
0.0
  0
SPLINE
  5
20C
100
AcDbEntity
  8
0_0
 62
     7
100
AcDbSpline
210
0.0
220
0.0
230
1.0
 70
     8
 71
     3
 72
    11
 73
     7
 74
     0
 42
0.00000001
 43
0.00000001
 40
0.0
 40
0.0
 40
0.0
 40
0.0
 40
1.0
 40
1.0
 40
1.0
 40
2.0
 40
2.0
 40
2.0
 40
2.0
 10
-205.14475640190972
 20
-93.564314778645823
 30
0.0
 10
-202.38334011501735
 20
-93.564314778645823
 30
0.0
 10
-200.14471706814234
 20
-91.325691731770831
 30
0.0
 10
-200.14471706814234
 20
-88.564103190104163
 30
0.0
 10
-200.14471706814234
 20
-85.802859157986106
 30
0.0
 10
-202.38334011501735
 20
-83.5642361111111
 30
0.0
 10
-205.14475640190972
 20
-83.5642361111111
 30
0.0
  0
LINE
  5
20B
100
AcDbEntity
  8
0_0
 62
     7
100
AcDbLine
 10
-75.144767
 20
76.632704
 30
0.0
 11
-75.144767
 21
46.632812
 31
0.0
  0
LINE
  5
20A
100
AcDbEntity
  8
0_0
 62
     7
100
AcDbLine
 10
-455.144828
 20
176.632802
 30
0.0
 11
-75.144767
 21
176.632802
 31
0.0
  0
LINE
  5
209
100
AcDbEntity
  8
0_0
 62
     7
100
AcDbLine
 10
-370.144676
 20
236.632585
 30
0.0
 11
-160.144747
 21
236.632585
 31
0.0
  0
LINE
  5
208
100
AcDbEntity
  8
0_0
 62
     7
100
AcDbLine
 10
-370.144676
 20
236.632585
 30
0.0
 11
-370.144676
 21
176.632802
 31
0.0
  0
INSERT
  5
1E6
100
AcDbEntity
  8
0_0
 62
     7
100
AcDbBlockReference
  2
AI9-BLK48
 10
-134.603498
 20
206.632865
 30
0.0
  0
LINE
  5
1E4
100
AcDbEntity
  8
0_0
 62
     7
100
AcDbLine
 10
-160.144747
 20
236.632585
 30
0.0
 11
-160.144747
 21
176.632802
 31
0.0
  0
INSERT
  5
1C2
100
AcDbEntity
  8
0_0
 62
     7
100
AcDbBlockReference
  2
AI9-BLK44
 10
-435.144757
 20
260.922403
 30
0.0
  0
INSERT
  5
19D
100
AcDbEntity
  8
0_0
 62
     7
100
AcDbBlockReference
  2
AI9-BLK43
 10
-448.542647
 20
-392.975841
 30
0.0
  0
INSERT
  5
18F
100
AcDbEntity
  8
0_0
 62
     7
100
AcDbBlockReference
  2
AI9-BLK41
 10
-413.955697
 20
-304.520431
 30
0.0
  0
LINE
  5
18D
100
AcDbEntity
  8
0_0
 62
     7
100
AcDbLine
 10
-435.658335
 20
-279.491295
 30
0.0
 11
-435.658335
 21
-259.024327
 31
0.0
  0
LINE
  5
18C
100
AcDbEntity
  8
0_0
 62
     7
100
AcDbLine
 10
-415.65835
 20
-279.491295
 30
0.0
 11
-415.65835
 21
-259.024327
 31
0.0
  0
LINE
  5
18B
100
AcDbEntity
  8
0_0
 62
     7
100
AcDbLine
 10
-470.144774
 20
-414.149742
 30
0.0
 11
-470.144774
 21
-433.054015
 31
0.0
  0
LINE
  5
18A
100
AcDbEntity
  8
0_0
 62
     7
100
AcDbLine
 10
-415.144858
 20
-343.856014
 30
0.0
 11
-415.144858
 21
-483.367223
 31
0.0
  0
LINE
  5
189
100
AcDbEntity
  8
0_0
 62
     7
100
AcDbLine
 10
-455.144828
 20
-258.367348
 30
0.0
 11
-455.144828
 21
-483.367223
 31
0.0
  0
LINE
  5
188
100
AcDbEntity
  8
0_0
 62
     7
100
AcDbLine
 10
-490.144759
 20
-414.149742
 30
0.0
 11
-490.144759
 21
-433.054015
 31
0.0
  0
LINE
  5
187
100
AcDbEntity
  8
0_0
 62
     7
100
AcDbLine
 10
-455.144828
 20
956.053616
 30
0.0
 11
-455.144828
 21
526.053678
 31
0.0
  0
LINE
  5
186
100
AcDbEntity
  8
0_0
 62
     7
100
AcDbLine
 10
-755.144777
 20
526.053678
 30
0.0
 11
-115.144737
 21
526.053678
 31
0.0
  0
LINE
  5
185
100
AcDbEntity
  8
0_0
 62
     7
100
AcDbLine
 10
-115.144737
 20
526.053678
 30
0.0
 11
-75.144767
 21
486.053708
 31
0.0
  0
LINE
  5
184
100
AcDbEntity
  8
0_0
 62
     7
100
AcDbLine
 10
-755.144777
 20
526.053678
 30
0.0
 11
-795.144747
 21
486.053708
 31
0.0
  0
INSERT
  5
162
100
AcDbEntity
  8
0_0
  6
AI9-LTYPE1
 62
     7
100
AcDbBlockReference
  2
AI9-BLK37
 10
-834.812438
 20
741.053475
 30
0.0
  0
INSERT
  5
13F
100
AcDbEntity
  8
0_0
  6
AI9-LTYPE1
 62
     7
100
AcDbBlockReference
  2
AI9-BLK33
 10
-752.644757
 20
1120.776378
 30
0.0
  0
INSERT
  5
11D
100
AcDbEntity
  8
0_0
  6
AI9-LTYPE1
 62
     7
100
AcDbBlockReference
  2
AI9-BLK29
 10
-605.144803
 20
1120.776378
 30
0.0
  0
INSERT
  5
FB
100
AcDbEntity
  8
0_0
  6
AI9-LTYPE1
 62
     7
100
AcDbBlockReference
  2
AI9-BLK25
 10
-435.144843
 20
1119.536488
 30
0.0
  0
INSERT
  5
D9
100
AcDbEntity
  8
0_0
  6
AI9-LTYPE1
 62
     7
100
AcDbBlockReference
  2
AI9-BLK21
 10
-265.144712
 20
1119.536488
 30
0.0
  0
INSERT
  5
B7
100
AcDbEntity
  8
0_0
  6
AI9-LTYPE1
 62
     7
100
AcDbBlockReference
  2
AI9-BLK17
 10
-117.644757
 20
1120.776378
 30
0.0
  0
INSERT
  5
94
100
AcDbEntity
  8
0_0
 62
     7
100
AcDbBlockReference
  2
AI9-BLK13
 10
-435.144757
 20
1153.01472
 30
0.0
  0
LINE
  5
92
100
AcDbEntity
  8
0_0
 62
     7
100
AcDbLine
 10
-626.326455
 20
-327.850789
 30
0.0
 11
-577.146339
 21
-327.850789
 31
0.0
  0
LINE
  5
91
100
AcDbEntity
  8
0_0
 62
     7
100
AcDbLine
 10
-286.326537
 20
-327.850789
 30
0.0
 11
-237.146248
 21
-327.850789
 31
0.0
  0
LINE
  5
90
100
AcDbEntity
  8
0_0
  6
AI9-LTYPE2
 62
     7
100
AcDbLine
 10
520.352045
 20
51.63268
 30
0.0
 11
520.352045
 21
-18.367182
 31
0.0
  0
LINE
  5
8F
100
AcDbEntity
  8
0_0
  6
AI9-LTYPE2
 62
     7
100
AcDbLine
 10
480.351731
 20
76.632704
 30
0.0
 11
520.352045
 21
51.63268
 31
0.0
  0
INSERT
  5
6C
100
AcDbEntity
  8
0_0
  6
AI9-LTYPE1
 62
     7
100
AcDbBlockReference
  2
AI9-BLK9
 10
500.351888
 20
107.554589
 30
0.0
  0
INSERT
  5
4A
100
AcDbEntity
  8
0_0
  6
AI9-LTYPE1
 62
     7
100
AcDbBlockReference
  2
AI9-BLK5
 10
735.352186
 20
107.554589
 30
0.0
  0
INSERT
  5
26
100
AcDbEntity
  8
0_0
 62
     7
100
AcDbBlockReference
  2
AI9-BLK1
 10
539.447521
 20
16.632749
 30
0.0
  0
ENDSEC
  0
SECTION
  2
OBJECTS
  0
DICTIONARY
  5
19
100
AcDbDictionary
  3
ACAD_GROUP
350
1A
  3
ACAD_MLINESTYLE
350
1B
  0
DICTIONARY
  5
1A
102
{ACAD_REACTORS
330
19
102
}
100
AcDbDictionary
  0
DICTIONARY
  5
1B
102
{ACAD_REACTORS
330
19
102
}
100
AcDbDictionary
  3
STANDARD
350
1C
  0
MLINESTYLE
  5
1C
102
{ACAD_REACTORS
330
1B
102
}
100
AcDbMlineStyle
  2
STANDARD
 70
     0
  3

 62
     0
 51
90.0
 52
90.0
 71
     2
 49
0.5
 62
   256
  6
BYLAYER
 49
-0.5
 62
   256
  6
BYLAYER
  0
ENDSEC
  0
EOF
